Ads

In the Hands of Fate (Pokémon Mystery Dungeon: Explorers of Time / Darkness / Sky) Guitar Tab

Submitted: Sep 19, 2014 by TraceTheKriken (Last updated: Oct 18, 2014)

5
Average: 5 (2 votes)
Download | Listen
Game: Pokémon Mystery Dungeon: Explorers of Time / Darkness / Sky
Composer(s): Arata Iiyoshi, Hideki Sakamoto, Keisuke Ito, Ken-ichi Saito, Yoshihiro Maeda
Style: Arrangement, Fingerstyle
Series: Pokemon

AutoScroll: Slow | Medium | Fast
Soundtrack: In The Hands of Fate
Game: Pokémon Mystery Dungeon: Explorers of the Time/Darkness/Sky
Composer: Arata Iiyoshi & Atsuhiro Ishizuna
Tabber: TraceTheKriken
Date: 15th September 2014

BPM: 78
Time Signature: 3/4

Put capo on 12th fret if your guitar has long enough neck to leave you space to actually play ;)

e||------------------------|0-----------------------|------------------------|
B||------------0---1---3---|----------------3---1---|0---------------0-------|
G||--------0---------------|--------0---------------|--------0---------------|
D||------------------------|------------------------|--------0---------------|
A||------------------------|--------3---------------|--------0---------------|
E||------------------------|1-----------------------|1-----------------------|

e||------------------------|------------------------|0-----------------------|
B||------------------------|------------0---1---3---|----------------3---1---|
G||2-----------------------|--------2---------------|--------0---------------|
D||--------2-------0-------|2-----------------------|------------------------|
A||--------3---------------|------------------------|--------3---------------|
E||0-------3---------------|0-----------------------|1-----------------------|

e||------------------------|--------0---------------|0-----------------------|
B||0---------------0-------|----------------3-------|------------0---1---3---|
G||--------0---------------|2---------------0-------|0-------0---------------|
D||--------0---------------|--------2---------------|------------------------|
A||------------------------|--------2-------2-------|0-----------------------|
E||1-----------------------|3-----------------------|------------------------|

e||0-----------------------|------------------------|------------------------|
B||----------------3---1---|0---------------0-------|------------------------|
G||--------0---------------|--------0---------------|2-----------------------|
D||------------------------|--------0---------------|--------2-------0-------|
A||--------3---------------|--------0---------------|--------3---------------|
E||1-----------------------|1-----------------------|0-------3---------------|

e||------------------------|------------------------|------------------------|
B||------------------------|----------------1-------|0-----------------------|
G||--------------------0---|2-------2-------2-------|0-------2-------0-------|
D||2---------------2-------|----------------2-------|2-----------------------|
A||0-----------------------|--------3---------------|------------------------|
E||------------------------|1-------5---------------|3-----------------------|

e||------------------------|
B||------------------------|
G||------------------------|
D||2-----------------------|
A||2-----------------------|
E||0-----------------------| D.C.

Login or Register to remove this ad.

1 comment on In the Hands of Fate

moar mystery dungeon!

5

moar mystery dungeon!