Ads

Don't Ever Forget (Pokémon Mystery Dungeon: Explorers of Time / Darkness / Sky) Guitar Tab

Submitted: Apr 29, 2014 by Reiatsu0 (Last updated: Oct 18, 2014)

5
Average: 5 (3 votes)
Download | Listen
Game: Pokémon Mystery Dungeon: Explorers of Time / Darkness / Sky
Composer(s): Arata Iiyoshi, Hideki Sakamoto, Keisuke Ito, Ken-ichi Saito, Yoshihiro Maeda
Style: Transcription
Series: Pokemon

AutoScroll: Slow | Medium | Fast
e|-------11-----14-13--11----11------|
B|11--14------------------14----11---|
G|-----------------------------------|
D|-----------------------------------|
A|-----------------------------------|
E|-----------------------------------|

e|-----------------------------------|
B|--------------------------14--11---|
G|---11-13----11-13--11-13-----------|
D|13---------------------------------|
A|-----------------------------------|
E|-----------------------------------|

e|-------11-----14-13--11----11------|
B|11--14------------------14----11---|
G|-----------------------------------|
D|-----------------------------------|
A|-----------------------------------|
E|-----------------------------------|

e|--------------------------------|
B|-------------------------11-----|
G|---11-13------13--11--13----11--|
D|13------------------------------|
A|--------------------------------|
E|--------------------------------|
Login or Register to remove this ad.