Ads

Gym Leader Battle Theme (Johto) (Pokémon HeartGold & SoulSilver) Bass/Guitar Tab

Submitted: Nov 14, 2015 by Strings805 (Last updated: Feb 25, 2016)

5
Average: 5 (1 vote)
Download | Listen
Game: Pokémon HeartGold & SoulSilver
Composer(s): Junichi Masuda, Go Ichinose, Hitomi Sato, Shota Kageyama, Takuto Kitsuta
Style: 2 or more instruments, Tapping, Transcription, Tremolo
Series: Pokemon

Click here for a video example.

AutoScroll: Slow | Medium | Fast
Gym Leader Battle (Johto): By Strings805 (Dave Muto)

So, if you watch the video I uploaded (https://www.youtube.com/watch?v=jXBuvfcGZp4) you’ll 
notice I play this song on a 7 string guitar and a 6 string bass. I’ve edited my original 
tab so that players on standard guitars & basses can…well, actually play it, lol. Here’s 
the tab for the Johto Gym Leader Battle Theme! Message me if you want the tabs for the 
7 string version/solo :D

Guitar 1: (High End Melodies/Harmonies)

E  :-----------------------------------------------|
B  :19-18-17-23-19-18-17-23-19-18-17-23-19-18-17-23|
G  :-----------------------------------------------|
D  :-----------------------------------------------|
A  :-----------------------------------------------|
E  :-----------------------------------------------|

E  :-----------------------------------------------|-------------------|
B  :19-18-19-23-19-18-19-23-19-18-19-23-19-18-19-23|-------------------|
G  :-----------------------------------------------|14*----15*----12*--|
D  :-----------------------------------------------|-------------------|
A  :-----------------------------------------------|-------------------|
E  :-----------------------------------------------|-------------------|

E  :-------------------|-------------------|-------------------|
B  :15*----------------|-------------------|15*----16*---------|
G  :-------14*----15*--|14*----15*----12*--|-------------------|
D  :-------------------|-------------------|--------------13---|
A  :-------------------|-------------------|-------------------|
E  :-------------------|-------------------|-------------------|

E  :-------------------|15*----------------|-------------------|
B  :15*----16*----13*--|-------15*----16*--|15*----16*----13*--|
G  :-------------------|-------------------|-------------------|
D  :-------------------|-------------------|-------------------|
A  :-------------------|-------------------|-------------------|
E  :-------------------|-------------------|-------------------|

E  :15*----16---------|
B  :------------------|
G  :------------------|
D  :------------------|
A  :------------------|
E  :------------------|

E  :----------10-8--6--8-|| -9--------13-11--9-11-|13-----------11-*-|
B  :11---------*---------|| ----------------------|------------------|
G  :-*-------------------||*----------------------|----------------*-|
D  :---------------------||*----------------------|------------------|
A  :---------------------|| ----------------------|------------------|
E  :---------------------|| ----------------------|------------------|

E  :16-----------13-*-|----------10-8--6--8-|-9--------13-11--9-11-|
B  :----------------*-|11---------*---------|----------------------|
G  :------------------|---------------------|----------------------|
D  :------------------|---------------------|----------------------|
A  :------------------|---------------------|----------------------|
E  :------------------|---------------------|----------------------|

E  :-9----------------|-----------------|
B  :------------------|-----------------|
G  :------------------|-----------------|
D  :------------------|-----------------|
A  :------------------|-----------------|
E  :------------------|-----------------|

E  :----------------|8-----6-----8---|----------------|9-----8-----9---|
B  :6-----4-----6---|----------------|----------------|----------------|
G  :----------------|----------------|6-----5-----6---|----------------|
D  :----------------|----------------|----------------|----------------|
A  :----------------|----------------|----------------|----------------|
E  :----------------|----------------|----------------|----------------|

E  :8---------------|12---------------|-----------------|
B  :----------------|-----------------|-----------------|
G  :----------------|-----------------|-6---------------|
D  :----------------|-----------------|-----------------|
A  :----------------|-----------------|-----------------|
E  :----------------|-----------------|-----------------|

E  :-------------------|----------------|-----------------|
B  :-----------------4-|----------------|-5---------------|
G  :-3--------6--------|5---------------|-----------------|
D  :-------------------|----------------|-----------------|
A  :-------------------|----------------|-----------------|
E  :-------------------|----------------|-----------------|

E  :-----------------|----------------11-|-----------------|
B  :14---------------|11-------14--------|13---------------|
G  :-----------------|-------------------|-----------------|
D  :-----------------|-------------------|-----------------|
A  :-----------------|-------------------|-----------------|
E  :-----------------|-------------------|-----------------|

E  :-----------------|
B  :17---------------|
G  :-----------------|
D  :-----------------|
A  :-----------------|
E  :-----------------|

E  :--------------------|----------------------|----------------------|
B  :*-------------------|----------------------|----------------------|
G  :--------------------|----------------------|----------------------|
D  :--------------------|----------------------|----------------------|
A  :--------------------|----------------------|----------------------|
E  :--------------------|----------------------|----------------------|

E  :----------------------|-----------------|-----------------|
B  :----------------------|-----------------|-----------------|
G  :----------------------|12---------------|13---------------|
D  :----------------------|-----------------|-----------------|
A  :----------------------|-----------------|-----------------|
E  :----------------------|-----------------|-----------------|

E  :---------------------|-----------------------|
B  :---------------------|-----------------------|
G  :14-------15-14-13-14-|15-------16-15-14-15---|
D  :---------------------|-----------------------|
A  :---------------------|-----------------------|
E  :---------------------|-----------------------|

E  :---------------------|-----20----*--------|23----*---23----*---|
B  :21-------22-21-19-22-|21----*---22---21---|-----21--------21---|
G  :-*-------------------|--------------------|-*---------*--------|
D  :---------------------|--------------------|--------------------|
A  :---------------------|--------------------|--------------------|
E  :---------------------|--------------------|--------------------|

E  :23-21-20-21-20--*-------|---------------------|-----16----*--------|
B  :-*-------------22-21-22-|21-------17-16-14-17-|16----*---17---14---|
G  :------------------------|---------------------|--------------------|
D  :------------------------|---------------------|--------------------|
A  :------------------------|---------------------|--------------------|
E  :------------------------|---------------------|--------------------|

E  :16----*---16----*---|17-16-14--*-------------|------------------|
B  :-*---14----*---14---|-*-------17-16-14-16-17-|16-------14-------|
G  :------*---------*---|------------------------|16-------14-------|
D  :--------------------|------------------------|------------------|
A  :--------------------|------------------------|------------------|
E  :--------------------|------------------------|------------------|

E  :------------------|-----16----*---17---|16*16*16*16*16*16*16*16*|
B  :12-------10-------|16----*---17--------|16*16*16*16*16*16*16*16*|
G  :13-------11-------|-*--------------*---|------------------------|
D  :------------------|--------------------|------------------------|
A  :------------------|--------------------|------------------------|
E  :------------------|--------------------|------------------------|

E  :16-*-------------|-----------------|-8---------------|7---------------|
B  :16-*-------------|-6---------------|-*---------------|----------------|
G  :-----------------|-----------------|-----------------|----------------|
D  :-----------------|-----------------|-----------------|----------------|
A  :-----------------|-----------------|-----------------|----------------|
E  :-----------------|-----------------|-----------------|----------------|

E  :*---------------|
B  :8---------------|
G  :----------------|
D  :----------------|
A  :----------------|
E  :----------------|

============================================================================
Guitar 2: (Low End Melodies/Harmonies)

E  :-----------------------------------------------|
B  :-----------------------------------------------|
G  :-----------------------------------------------|
D  :16-15-14-20-16-15-14-20-16-15-14-20-16-15-14-20|
A  :-----------------------------------------------|
E  :-----------------------------------------------|

E  :-----------------------------------------------|-------------------|
B  :-----------------------------------------------|-------------------|
G  :-----------------------------------------------|-*-----------------|
D  :16-15-16-20-16-15-16-20-16-15-16-20-16-15-16-20|12*----13*----10*--|
A  :-----------------------------------------------|-------------------|
E  :-----------------------------------------------|-------------------|

E  :-------------------|-------------------|-------------------|
B  :-------------------|-------------------|-------------------|
G  :10*----------------|-------------------|10*----12*---------|
D  :-------12*----13*--|12*----13*----10*--|--------------12---|
A  :-------------------|-------------------|-------------------|
E  :-------------------|-------------------|-------------------|

E  :-------------------|-------------------|-------------------|
B  :-------------------|13*----------------|-------------------|
G  :12*----13*----10*--|-------12*----13*--|12*----13*----10*--|
D  :-------------------|-------------------|-------------------|
A  :-------------------|-------------------|-------------------|
E  :-------------------|-------------------|-------------------|

E  :------------------|
B  :13*----14---------|
G  :------------------|
D  :------------------|
A  :------------------|
E  :------------------|

E  :---------------------|| ----------------------|------------------|
B  :---------------------|| ----------------------|------------------|
G  :-------12------10-12-||*13---12---10----12----|13-----------12-*-|
D  :12-------------------||*----------------------|------------------|
A  :---------------------|| ----------------------|------------------|
E  :---------------------|| ----------------------|------------------|

E  :------------------|---------------------|----------------------|
B  :14-----------13-*-|---------------------|----------------------|
G  :------------------|-------12------10-12-|13---12---10----12----|
D  :------------------|12------*------------|----------------------|
A  :------------------|---------------------|----------------------|
E  :------------------|---------------------|----------------------|

E  :------------------|-----------------|
B  :------------------|-----------------|
G  :13-------12-------|10-------8-------|
D  :------------------|-----------------|
A  :------------------|-----------------|
E  :------------------|-----------------|

E  :----------------|----------------|----------------|----------------|
B  :----------------|----------------|----------------|----------------|
G  :5-----5-----5---|------8-----8---|----------------|6-----3-----6---|
D  :----------------|8---------------|3-----6-----3---|----------------|
A  :----------------|----------------|----------------|----------------|
E  :----------------|----------------|----------------|----------------|

E  :----------------|-----------------|-----------------|
B  :----------------|-----------------|-----------------|
G  :5---------------|-9---------------|10---------------|
D  :----------------|-----------------|-----------------|
A  :----------------|-----------------|-----------------|
E  :----------------|-----------------|-----------------|

E  :-------------------|----------------|-----------------|
B  :-------------------|----------------|-----------------|
G  :---------10-----12-|9---------------|12---------------|
D  :11-----------------|----------------|-----------------|
A  :-------------------|----------------|-----------------|
E  :-------------------|----------------|-----------------|

E  :-----------------|-------------------|-----------------|
B  :-----------------|----------------11-|-----------------|
G  :13---------------|10-------13--------|12---------------|
D  :-----------------|-------------------|-----------------|
A  :-----------------|-------------------|-----------------|
E  :-----------------|-------------------|-----------------|

E  :-----------------|
B  :-----------------|
G  :17---------------|
D  :-----------------|
A  :-----------------|
E  :-----------------|

E  :--------------------|----------------------|----------------------|
B  :------(6)-----(6)---|(7)-----(7)-----(7)---|(8)-----(8)-----(8)---|
G  :*------5-*-----5-*--|-6-*-----6-*-----6-*--|-7-*-----7-*-----7-*--|
D  :--------------------|----------------------|----------------------|
A  :--------------------|----------------------|----------------------|
E  :--------------------|----------------------|----------------------|

E  :----------------------|-----------------|-----------------|
B  :(9)-----(9)-----(9)---|13---------------|14---------------|
G  :-8-*-----8-*-----8-*--|-----------------|-----------------|
D  :----------------------|-----------------|-----------------|
A  :----------------------|-----------------|-----------------|
E  :----------------------|-----------------|-----------------|

E  :---------------------|-----------------------|
B  :15-------------------|16----------------19-20|
G  :---------------------|-----------------------|
D  :---------------------|-----------------------|
A  :---------------------|-----------------------|
E  :---------------------|-----------------------|

E  :---------------------|--------------------|--------------------|
B  :-*-------------------|--------------------|--------------------|
G  :17-------18----17----|-*------------------|20--------20--------|
D  :---------------------|18------------------|-----18--------18---|
A  :---------------------|--------------------|--------------------|
E  :---------------------|--------------------|--------------------|

E  :------------------------|---------------------|--------------------|
B  :------------------------|---------------------|--------------------|
G  :20-18-17-18-17--*-------|---------------------|-----13----*--------|
D  :-*-------------19-18-19-|18-------14-13-11-14-|13----*---14---11---|
A  :------------------------|---------------------|--------------------|
E  :------------------------|---------------------|--------------------|

E  :--------------------|------------------------|------------------|
B  :--------------------|------------------------|------------------|
G  :13----*---13----*---|14-13-11--*-------------|------------------|
D  :-*---11----*---11---|---------14-13-11-13-14-|13-------11-------|
A  :--------------------|------------------------|------------------|
E  :--------------------|------------------------|------------------|

E  :------------------|--------------------|------------------------|
B  :------------------|--------------------|------------------------|
G  :------------------|-----13--------14---|13*13*13*13*13*13*13*13*|
D  :-*----------------|13----*---14----*---|13*13*13*13*13*13*13*13*|
A  :14-------12-------|-*---------*--------|------------------------|
E  :------------------|--------------------|------------------------|

E  :-----------------|-----------------|-----------------|----------------|
B  :-----------------|-----------------|-----------------|----------------|
G  :13-*-------------|-----------------|10---------------|9---------------|
D  :13-*-------------|10---------------|-*---------------|----------------|
A  :-----------------|-----------------|-----------------|----------------|
E  :-----------------|-----------------|-----------------|----------------|

E  :----------------|
B  :----------------|
G  :8---------------|
D  :----------------|
A  :----------------|
E  :----------------|

============================================================================
Bass:

G  :-----------------------------------------------|
D  :-------7-----*-----6-----*-----5-----*-----4---|
A  :-----------------------------------------------|
E  :-----------------------------------------------|

G  :-----------------------------------------------|-------------------|
D  :-*-----3-----*-----2-----*-----3--5--6---------|-5-0-3--5-6-6--5-3-|
A  :-----------------------------------------------|-------------------|
E  :-----------------------------------------------|-------------------|

G  :-------------------|-------------------|-------------------|
D  :-5-0-3--5-3-3--1-3-|-5-0-3--5-6-6--5-3-|-5-0-3--5-6-0--3---|
A  :-------------------|-------------------|-------------------|
E  :-------------------|-------------------|-------------------|

G  :-------------------|-------------------|-------------------|
D  :-5-0-3--5-6-6--5-3-|-5-0-3--5-3-3--1-3-|-5-0-3--5-6-6--5-3-|
A  :-------------------|-------------------|-------------------|
E  :-------------------|-------------------|-------------------|

G  :------------5-3---|
D  :-5-0-3--5-6-----6-|
A  :------------------|
E  :------------------|

G  :---------------------|| ----------------------|------------------|
D  :---5----5----5-----5-||*---5----5-----5-----5-|---6---6---6----6-|
A  :-5---5-----5----5----||*-5----5----5-----5----|-4---4---4----4---|
E  :---------------------|| ----------------------|------------------|

G  :------------------|---------------------|----------------------|
D  :---6---6---8--7-6-|---5----5----5-----5-|---5----5-----5--6--5-|
A  :-4---4---4--------|-5---5-----5----5----|-5----5----5----------|
E  :------------------|---------------------|----------------------|

G  :------------------|-----------------|
D  :---6---6----6---6-|---6---6---6---6-|
A  :-4---4----4---4---|-4---4---4---4---|
E  :------------------|-----------------|

G  :----3---------3-|----------------|----------------|----------------|
D  :--5-------3-5---|--5---5---5---5-|--3---3---3---3-|--5---5-------3-|
A  :3-----3-6-------|3---3---3---3---|1---1---1---1---|----------1-4---|
E  :----------------|----------------|----------------|3---3---3-------|

G  :----------------|-----------------|-----------------|
D  :--5---5---5---5-|---5---5-----3-5-|---6---6---6---6-|
A  :3---3---3---3---|-3---3---3-6-----|-4---4---4---4---|
E  :----------------|-----------------|-----------------|

G  :-------------------|----------------|-----------------|
D  :---3---3------0--1-|--5---5---5---5-|---5---5-3-2-3-5-|
A  :-1---1----1-3------|3---3---3---3---|-3---3-----------|
E  :-------------------|----------------|-----------------|

G  :-----------------|-------------------|-----------------|
D  :---6---6---6---6-|---3---3----3----3-|---5---5---5---5-|
A  :-4---4---4---4---|-1---1----1---1----|-3---3---3---3---|
E  :-----------------|-------------------|-----------------|

G  :-------5-3-------|
D  :---5-------5-3-5-|
A  :-3---3-----------|
E  :-----------------|

G  :--------------------|----------------------|----------------------|
D  :--------------------|----------------------|----------------------|
A  :3-*-----------------|-4--*---------------4-|-5--*---------------5-|
E  :--------------------|----------------------|----------------------|

G  :----------------------|-----5-----5-----|-----6-----6-----|
D  :-----------------6--8-|---5-----5-----3-|---6-----6-----4-|
A  :-6--*---------8-------|-3-----3-----3---|-4-----4-----4---|
E  :----------------------|-----------------|-----------------|

G  :-----7-------7-------|-8-----8--------7--8---|
D  :---7------7--------5-|---8------8------------|
A  :-5-----5--------5----|-----6-------6---------|
E  :---------------------|-----------------------|

G  :---------------------|--------8----6------|--------------------|
D  :---6---6-----6-----6-|---6--------------6-|---6----6----6----6-|
A  :-6---6----6-----6----|-6----6----6----6---|-6----6----6----6---|
E  :---------------------|--------------------|--------------------|

G  :------------------------|---------------------|--------6-----------|
D  :----6-----6-----7--6--4-|---4---4-----4-----4-|---4---------7----4-|
A  :-6-----6-----6----------|-4---4----4-----4----|-4----4----4----4---|
E  :------------------------|---------------------|--------------------|

G  :--------------------|------------------------|------------------|
D  :---4----4----4----4-|----4-----4-----------7-|---6---6----6---6-|
A  :-4----4----4----4---|-4-----4-----4--6--7----|-6---6----6---6---|
E  :--------------------|------------------------|------------------|

G  :----------------6-|------------------6-|------------------------|
D  :---6---6----6-7---|---6----7----9------|-6-----4--6--7--7--6--4-|
A  :-6---6----6-------|-6----6----6----6---|----6-------------------|
E  :------------------|--------------------|------------------------|

G  :-----------------|-----------------|-----------------|----------------|
D  :-6---4-6-4-4-2-4-|-3-----3-4-4-3---|-3-----3---------|3-----3-4-4-3---|
A  :---6-------------|---3-6---------6-|---3-6---6-6-4-6-|--3-6---------6-|
E  :-----------------|-----------------|-----------------|----------------|

G  :----------------|
D  :3-----3---4-3---|
A  :--3-6---6-----6-|
E  :----------------|

============================================================================
Login or Register to remove this ad.