Ads

Cianwood City (Pokémon HeartGold & SoulSilver) Guitar Tab

Submitted: Dec 19, 2020 by H.F. (Last updated: Dec 24, 2020)

5
Average: 5 (4 votes)
Download | Listen
Game: Pokémon HeartGold & SoulSilver
Composer(s): Junichi Masuda, Go Ichinose, Hitomi Sato, Shota Kageyama, Takuto Kitsuta
Style: Arrangement, Fingerstyle
Series: Pokemon

AutoScroll: Slow | Medium | Fast
Title: Cianwood City
Album: Pokémon HeartGold/SoulSilver
Music: Go Ichinose
Tabber: H.F.

Tempo = 82

Legend
L - tied note
h - hammer on/pull off
s - slide

Capo 4th

E ||---------------------------|----------------------------|
B ||---------------------------|----------------------------|
G ||o---------1L-1-------------|--------1--2L-2-------------|
D ||o------4-------------------|----------------------------|
A ||----2----------------------|-----4----------------------|
E ||-0-------------------------|--0-------------------------|


-----------------2--0-------|----------------------------|
-----------------------2----|--0-----2-----4-----0-------|
-----------1----------------|--------3-----2-------------|
--------4-------------------|--1-----2-----4-----1-------|
-----2----------------------|-----------------------2----|
--0-------------------------|----------------------------|


--2--------0--0-------------|--5--------4-----4--5--7----|
----------------------------|----------------------------|
-----------1----------------|----------------------------|
--------4-------------------|--------0--3-----3--4--6----|
-----2----------------------|-----2----------------------|
--0-------------------------|--1-------------------------|


--4--0--0-----0-------------|--4--7--4--2----------------|
-----------2--1--0----------|--------2--4--------4-------|
--------1--2--------2-------|-----2----------------------|
-----2----------------------|----------------------------|
----------------------------|--2-------------------------|
--2-------------------------|----------------------------|


--2--------0--0-------------|--5--------4-----4--5--7----|
--4-------------------------|--3--------2-----0--2-------|
-----------1----------------|-----------------------7----|
--------4-------------------|--------0--3----------------|
-----2----------------------|-----2----------------------|
--0-------------------------|--1-------------------------|


--9--4--4--0--0--------0----|
--------2--------2--4-------|
--9-----------2--------1----|
-----------------2--4-------|
--0-------------------------|
----------------------------|


--3s-4-----------------------------------2-----------2--------------------------
--3s-4-----------------------------------0-----------0--------------------------
-----------------------------------------------------------------------------1--
--------------------------------------------------------------------------------
-----2--------------------------------------------------------------------------
--------------------------------------------------------------------------------


-----------------------|----------------------------|
---------0-------------|--2-------------------------|
-----------------------|--------------------1-------|
-----------------------|-----------------2-----4----|
-----------------------|--0--------0--4-------------|
-----------------------|--------------5--------0----|


----------------------------|----------------------------|
----------------------------|--0-------------------------|
--------------------2-------|-----------2--------1-------|
--------2-----1-----2-------|--4--------------------1----|
--0--------0--0--0-----0----|----------------------------|
----------------------------|--4-----------4--4----------|


----------------------------|----------------------------|
----------------------------|----------------------------|
----------------------------|-----------------2--1-------|
--4--2--1--2-----1-----2----|-----------------------4----|
--4--------4--3-----2--1----|--4--------------------0----|
----------------------------|--2--------2--2-------------|


----------------------------------------------------|----------------|
----------------------------------------------------|--------0--4----|
--------------------------------------------0-------|--1--1----------|
--2-----------------1-----------2-----4-----0h-1----|--2-------------|
--2-----------------------2-----2-----4-------------|----------------|
----------------------------------------------------|----------------|


--2--1--5--7----|--9-----------------9--4----|--4--------------------5----|
--3--0----------|-----------9--9--9----------|--5--7--6--7--------4--5----|
----------------|--9-----------6-------------|--5-------------------------|
--------6-------|----------------------------|----------------------------|
-----------8----|--0--------0--0-------------|--0--------0--0--0-----0----|
----------------|----------------------------|----------------------------|


--7-----------------7-------|--11-------12-9--------0----|
--7--------7--7--7-----7----|--------------------2-------|
----------------------------|--11----------9-------------|
--6-----------6--6----------|----------------------------|
----------------------------|--------------------2--1----|
----------------------------|--9-----------8-------------|


--5--------------7--5--4----|--2-----------------0--2----|--4------------||
--2-------------------------|-----------------4----------|---------------||
----------------------------|----------------------------|--------------o||
----------------------------|----------------------------|--2-----------o||
-----------4-----------0----|--2--------2--2-------------|-----2---------||
--2-----------2-----4-------|----------------------------|--------4--2---||


----------------------------|----------------------------|
----------------------------|----------------------------|
-----------1L-1-------------|--------1--2L-2-------------|
--------4-------------------|----------------------------|
-----2----------------------|-----4----------------------|
--0-------------------------|--0-------------------------|


----------------------------|----------------------------|-------||
----------------------------|----------------------------|-------||
-----------1L-1-------------|-----------2L-2-------------|--1----||
--------4-------------------|--------4-------------------|--4----||
-----2----------------------|-----3----------------------|--2----||
--0-------------------------|--0-------------------------|--0----||

Login or Register to remove this ad.

2 comments on Cianwood City

Beautiful

so amazing, one of my favorite songs, thanks :)

Awesome

5

Thanks for this, this is really good. I've checked out several of your Pokemon tabs and they're excellent (especially Fortree City and Rustboro City,) hope to see more!