Route 2 (Pokémon Gold & Silver) Guitar Tab

Submitted: Aug 08, 2016 by GuitarGuy

5
Average: 5 (1 vote)
Download | Listen
Game: Pokémon Gold & Silver
Composer(s): Junichi Masuda, Go Ichinose
Style: Arrangement, Fingerstyle
Series: Pokemon

This song is also called Viridian Forest

AutoScroll: Slow | Medium | Fast
Route 2 [Pokemon Gold, Silver, Crystal]
Arranged by: Romyl Lopez a.k.a GuitarGuy
Capo: 0
Standard Tuning: E A D G B E

    Q     Q     E  E  E  E     Q     Q     E  E  E  E     Q     E  E  E  E  E  E     Q     E  E     Q     Q
E|--0-----0-----0-----0-----|--6-----6-----6-----6-----|--5-----5-----5-----5-----|--4-----4--------4-----3--|
B|--1-----1-----1-----1-----|--5-----5-----5-----5-----|--6-----6-----6-----6-----|--6-----6--------6-----6--|
G|--------------------------|--------------------------|--------------------------|--------------------------|
D|--------------------------|-----------------5-----5--|--3--------3--3--3-----3--|--3--------3-----3-----0--|
A|-----------------3-----3--|--------------------------|--------------------------|--------------------------|
E|--------------------------|--------------------------|--------------------------|--------------------------|



    Q     E  E  E  E  E  E     Q     E  E  E  E  E  E     Q     E  E  E  E  E  E     Q     E  E  E  E  S S
||--0-----0-----0-----0-----|--6-----6-----6-----6-----|--5-----5-----5-----5-----|--4-----4-----4--3-------|
||o-1-----1-----1-----1-----|--5-----5-----5-----5-----|--6-----6-----6-----6-----|--6-----6-----6--6--1h3--|
||--------------------------|--------------------------|--------------------------|-------------------------|
||--------------------------|--5--------5--5--5-----5--|--3--------3--3--3-----3--|--3--------3--3--0-------|
||o-3--------3--3--3-----3--|--------------------------|--------------------------|-------------------------|
||--------------------------|--------------------------|--------------------------|-------------------------|



    Q     E  E  E  E  E  E     Q     E  E  E  E  E  S S     Q     E  E  E  E  E  E     E  E  E  E  E  E  E  S S
 |--0-----------------------|----------------------------|--0-----------------1--0--|--0--------------3-----1h3--|
 |-----------------3--x--1--|-----------------------1h3--|--------------------------|-----3--1--3--L-------------|
 |--------------------------|--0-----------2-h3--x-------|--------------------------|----------------------------|
 |--------------------------|----------------------------|--3-----x--3--3--3--------|--3--------3--3-----x-------|
 |--3-----x--3--3-----------|--3-----x--3--3-------------|--------------------------|----------------------------|
 |--------------------------|----------------------------|--------------------------|----------------------------|



    Q     E  E  E  E  E  E     Q     E  E  E  E  E  S S     Q     E  E  E  E  E  E     E  E  E  E  E  E  E  E
 |--0--------L--------------|----------------------------|--0-----------------1--0--|--0-----------------------|
 |-----------------3--x--1--|-----------------------1h3--|--------------------------|-----3--1--3-----1--x--3--|
 |--------------------------|--0-----------2-h3--x-------|--------------------------|--------------------------|
 |--------------------------|----------------------------|--3-----x--3--3--3--------|--3--------3--3-----------|
 |--3-----x--3--3-----------|--3-----x--3--3-------------|--------------------------|--------------------------|
 |--------------------------|----------------------------|--------------------------|--------------------------|



    Q     E  E  E  Q     E     Q     E  E  E  E  E  E     Q     E  E  E  E  E  E     E  E  E  E  E  E  E  E
 |-----------------------0--|-----------------------0--|--1--------------0--x-----|--------------------5--3--|
 |--0--------------3--------|--1--------------3--------|-----------------------3--|--1p-0-----0-----0--------|
 |--------------------------|--------------------------|--------------------------|--------2-----------------|
 |--------------------------|--------------------------|--3-----x--3--4-----------|--------------------------|
 |--------------------------|--0-----x--0--------------|--------------------------|--------------------------|
 |--0-----x--0--0-----------|--------------4-----------|--------------------------|--3-----------3-----------|



    Q     E  E  E  Q     E     Q     E  E  E  E  E  E     Q     E  E  E  Q     E     E  E  E  E  E  E  E  E
 |-----------------------0--|-----------------------0--|--1--------------5-----7--|--3--------3--------------||
 |--0--------------3--------|--1--------------3--------|--------------------------|--------3-----6--3-------o||
 |--------------------------|--------------------------|--------------------------|-----4--------------4-----||
 |--------------------------|--------------------------|--3-----x--3--4-----------|--5--------------------5--||
 |--------------------------|--0-----x--0--------------|--------------------------|-------------------------o||
 |--0-----x--0--0-----------|--------------4-----------|--------------------------|--------------------------||
Login or Register to remove this ad.