Ads

Come Along (Pokémon Gold & Silver) Guitar Tab

Submitted: May 06, 2021 by judgexii

5
Average: 5 (1 vote)
Download | Listen
Game: Pokémon Gold & Silver
Composer(s): Junichi Masuda, Go Ichinose
Style: Arrangement, Fingerstyle
Series: Pokemon

This song is also called Guide

AutoScroll: Slow | Medium | Fast
"Come Along" - Pokemon G/S/C
Composers : Junichi Masuda
Arrangement : judgexii
Tuning : Standard EADGBe
BPM : 133 (4/4 Time)

   Preamble
   e  e  e  e  e  e  e  e    q  s s s s  q    q
E--12-10-9--10-9--7--5--4-|--0--0-----10-12---------|
B-----------9--------5--3-|--0---h9-12--------------|
G-----7--9--------7-------|-------------------------|
D--9-----------9----------|-------------------------|
A-------------------------|-------------------------|
E-------------------------|-------------------0-----|

   Intro
   q    e  e  e  q     e     e  q    e  q    e e
E-------------------------|-------------------------|
B-------5--------7--------|-----5-------3----2/3----|
G-------6--------7-----8--|-----6-------4----3/4----|
D-------7--------7-----7--|-----7-------------------|
A-------------5-----------|-------------------------|
E--5-------5--------------|--5-------5-------0------| x2

   Main Score
   e  e  e  e  e  e  e  e    e  e  e  e  e  e  q       e  e  e  e  e  e  e  e    e  e  e  e  e  e  q
E--------------------5----|-------------------------|--------------------5--5-|--4--0--2--4--5--5--5----|
B--------5--------7-------|--------5-----3--2-------|--------5--------7-----7-|--------3--------2-------|
G-----6--6-----7--7-----8-|-----6--------------4----|-----6--6-----7--7-------|--------4-----2--2--2----|
D--7--------------------7-|--7--7--------------2----|--7----------------------|-----------2-------------|
A--------------5----------|-------------------------|--------------5----------|--------------0-----0----|
E--5--------5-------------|--5--------5--0-----0----|--5--------5-------------|--0----------------------|

   e  e  e  e  e  e  e  e    e  e e e s s s s e s s    e  e  e  e  e  e  e  e    e  e  e  e  e  e  q
E--9--5--5----------------|--9--5-5---4p3p2p1-0-----|--9--5--5----------------|-------------------------|
B--------5-----7----------|-------------------3-4h5-|--------5-----7--------5-|--3--0-------------------|
G--------6--------------8-|-----6-------------4-----|--------6----------------|--1-----2--1--2--2--2----|
D-----------------7--7--7-|-----7-------------------|-----------------7--7----|--2--------2--2--2--2----|
A--------------5--5-------|-------------------------|--------------5--5-------|--------------0--0--0----|
E--5--------5-------------|--5------5-0-------------|--5--------5-------------|--0----------------------| Back to Intro

Note Legend
-----------
w - whole
h - half
q - quarter
e - eighth
. - dotted

Tab Legend
-----------
h - hammer on
p - pull off
/ - slide up
Login or Register to remove this ad.