Burned Tower (Pokémon Gold & Silver) Guitar Tab

Submitted: Jul 14, 2018 by SqueaknGeek

5
Average: 5 (1 vote)
Download | Listen
Game: Pokémon Gold & Silver
Composer(s): Junichi Masuda, Go Ichinose
Style: Transcription
Series: Pokemon

AutoScroll: Slow | Medium | Fast
Pokemon Silver and Gold
Burned Tower
Junichi Masuda
SqueaknGeek
3rd May 2018

     Q    E  E  Q    Q    Q    E  E  Q    Q       Q    E  E  Q    Q    W                 
E||--------------------------------------------|----------------------------------------|
B||-----------------------0----1--0------------|----------------------------------------|
G||------------------2---------------2---------|----------------------------------------|
D||--2----0--2--3-------------------------3----|--2----0--2--3----0----2----------------|
A||--------------------------------------------|----------------------------------------|
E||--------------------------------------------|----------------------------------------|


  Q    E  E  Q    Q    Q    E  E  Q    Q       Q    E  E  Q    Q    W                 
--------------------------------------------|----------------------------------------|
-----------------------0----1--0------------|----------------------------------------|
------------------2---------------2---------|----------------------------------------|
--2----0--2--3-------------------------3----|--2----0--2--3----0----2----------------|
--------------------------------------------|----------------------------------------|
--------------------------------------------|----------------------------------------|


  W                Q    E  Q    E  Q       E  Q    E  Q     S S  S S  W                 
----------------------------------------|--------------------------8-12----------------|
----------------------------------------|------------------10-8-10---------------------|
-------------------8----7--7----7--6----|----------------------------------------------|
----------------------------------------|--7--7----7--8--------------------------------|
----------------------------------------|----------------------------------------------|
----------------------------------------|----------------------------------------------|


  Q    E  E  Q    Q    Q    E  E  Q    Q       Q    E  E  Q    Q    W                 
--------------------------------------------|----------------------------------------|
------------------0----2----3--2--0---------|----------------------------------------|
-------------0-------------------------0----|-------------0--------------------------|
--4----2--4---------------------------------|--4----2--4-------2----4----------------|
--------------------------------------------|----------------------------------------|
--------------------------------------------|----------------------------------------|


  Q    E  E  Q    Q    Q    E  E  Q    Q       Q    E  E  Q    Q    W                  
--------------------------------------------|----------------------------------------||
-----------------------0----1--0------------|----------------------------------------||
------------------2---------------2---------|----------------------------------------||
--2----0--2--3-------------------------3----|--2----0--2--3----0----2----------------||
--------------------------------------------|----------------------------------------||
--------------------------------------------|----------------------------------------||

Repeat from the seventh to tenth bar as many times as you like.



Duration Legend
---------------
W - whole
H - half
Q - quarter
E - 8th
S - 16th
T - 32nd
X - 64th
. - note dotted
|-n-|  - n-tuplets


Tablature Legend
----------------
L - tied note
x - dead note
g - grace note
(n) - ghost note
> - accentuded note
NH - natural harmonic
AH - artificial harmonic
TH - tapped harmonic
SH - semi harmonic
PH - pitch harmonic
h - hammer on
p - pull off
b - bend
br - bendRelease
pb - preBend
pbr - preBendRelease
brb - bendReleaseBend
\n/ - tremolo bar dip
\n - tremolo bar dive
-/n - tremolo bar Release up
/n\ - tremolo bar inverted dip
/n - tremolo bar return
-\n - tremolo bar Release down
S - shift slide
s - legato slide
/ -  slide into from below or out of upwards
\ -  slide into from above or out of downwards
~ - vibrato
W - wide vibrato
tr - trill
TP - tremolo picking
T - tapping
S - slap
P - pop
< - fade in
^ - brush up
v - brush down
Login or Register to remove this ad.