Ads

Pokémon League (Day) (Pokémon Diamond & Pearl) Guitar Tab

Submitted: Aug 31, 2015 by Andarnio

5
Average: 5 (5 votes)
Download | Listen
Game: Pokémon Diamond & Pearl
Composer(s): Junichi Masuda, Hitomi Sato
Style: Arrangement, Fingerstyle
Series: Pokemon

AutoScroll: Slow | Medium | Fast
The music that plays outside the Sinnoh League

Drop D

DADGBE

-3-----------------------|-3-----------------0-----|------------------7------|-------7--5-----7--8-----|
----------1--------------|----------1-----0-----4--|-3--------0--------------|-------------------------|
-------2-----------------|-------------------------|-------0-----------------|-------5-----------------|
-------------------------|-------3-----------------|-------------------------|-------------------------|
----3--------------------|----0--------------------|----2--------------------|----7--------------------|
-3-----------------------|-0-----------------------|-2-----------------------|-7-----------------------|


-3-----------------------|-3-----------------0-----|------------------7------|-------7--5--------------|
----------1--------------|----------1-----0-----4--|-3--------0--------------|-------------------------|
-------2-----------------|-------------------------|-------0-----------------|-------5-----------------|
-------------------------|-------3-----------------|-------------------------|-------------------------|
----3--------------------|----0--------------------|----2--------------------|----7--------------------|
-3-----------------------|-0-----------------------|-2-----------------------|-7-----------------------|


-5-----------------------|----------0-----------0--|-------------------------|----------------0-----1--|
-6-----------------------|----------------3--------|-3-----------------------|-------3-----------0-----|
-5-----2-----0-----2-----|----2--2-----0-----2-----|-4-----4-----2-----4-----|-------4-----2-----0-----|
-------------------------|-------------------------|-5-----------------------|-------5--0-----0-----0--|
----3-----3-----3-----3--|----3-----3-----3-----3--|----5-----5-----5-----5--|----5--------------------|
-3-----------------------|-3-----------------------|-5-----------------------|-5-----------------------|


-0-----------------------|----------0-----------0--|-------------------------|-------------------------|
-1-----------------------|----------------3--------|-3-----------------------|-3-----2-----1-----1-----|
-2-----2-----0-----2-----|----2--2-----0-----2-----|-4-----------------------|-4-----3-----2-----1-----|
-------------------------|-------------------------|-5-----5-----4-----5-----|-5-----4-----3-----3-----|
----3-----3-----3-----3--|----3-----3-----3-----3--|----2-----2-----2-----2--|-------------------------|
-3-----------------------|-3-----------------------|-2-----------------------|-2-----1-----0-----------|


----------3--------------|----------5--------3-----|----------5--------------|-------------------------|
-0--------5--------0-----|----------5--------5-----|-1--------6--------1-----|-1-----------1-----------|
-0--0--5--5--5--0--0--0--|-3--0--5--5--5-----5--0--|-2-----2--5--------2-----|-1--------1--0--1--------|
-2--2--5-----------2-----|-2--2--5--------5--------|-3--3--3-----3-----3-----|-3-----3-----------3-----|
-3-----------------3-----|-3-----------------3-----|----3-----3-----3-----3--|----3-----------------3--|
-------------------------|-------------------------|-3-----------------3-----|-3-----------------------|


----------3--------------|----------5--------3-----|----------5--------------|----------------1--4--8--|
-0--------5--------0-----|----------5--------5-----|-1--------6--------1-----|-1-----------1-----------|
-0--0--5--5--5--0--0--0--|-3--0--5--5--5-----5--0--|-2-----2--5--------2-----|-1--------1--------------|
-2--2--5-----------2-----|-2--2--5--------5--------|-3--3--3-----3-----3-----|-3-----3-----------------|
-3-----------------3-----|-3-----------------3-----|----3-----3-----3-----3--|----3--------------------|
-------------------------|-------------------------|-3-----------------3-----|-3-----------------------|


-8--4--1-----------------|-------------------------|
----------1--------------|-------------------------|
-------------1-----------|-------------------------|
----------------3--------|-------------------------|
-------------------3-----|-------------------------|
----------------------6--|-------------------------|
Login or Register to remove this ad.

1 comment on Pokémon League (Day)

The memories :')

5

The memories :')