Undella Town (Summer) (Pokémon Black and White) Guitar Tab

Submitted: Jan 12, 2013 by Kiku

5
Average: 5 (1 vote)
Download | Listen
Game: Pokémon Black and White
Composer(s): Junichi Masuda, Go Ichinose, Hitomi Sato, Shota Kageyama, Minako Adachi, Morikazu Aoki, Satoshi Nohara
Style: Fingerstyle, Transcription
Series: Pokemon

This song is also called サザナミタウン (夏)

AutoScroll: Slow | Medium | Fast
Undella Town (Summer) (Sazanami Town (Natsu))
Pokémon Black and White
Composed by Shota Kageyama
Tabbed by Kiku
2013-01-12

BPM: 116

Drop D Tuning and capo on the 4th fret.


                            Undella Town (Summer)                               


Guitar 1 (DADGBE Tuning (Drop D) Capo 4)
     E.  E.  E  H           E.  E.  E  H           E.  E.  E  H         
E||----------------------|----------------------|----------------------|
B||----------1--L--------|----------1--L--------|----------0--L--------|
G||----------0--L--------|----------2--L--------|----------0--L--------|
D||------2---------------|--0---3---------------|------0---------------|
A||--3-------------------|----------------------|----------------------|
D||----------------------|----------------------|--2-------------------|


  E.  E.  E  H           E.  E.  E  H           E.  E.  E  H         
----------------------|----------------------|----------------------|
----------1--L--------|----------1--L--------|----------1--L--------|
----------0--L--------|----------2--L--------|----------2--L--------|
------2---------------|------3---------------|--0---3---------------|
--0-------------------|--3-------------------|----------------------|
----------------------|----------------------|----------------------|


  E.  E.  E  H           E.  E.  E  H           E  S S H.            
----------------------|----------------------|----------------------|
----------------------|----------0--L--------|--1----1--------------|
----------2--L--------|----------0--L--------|--0----0--------------|
------0---3--L--------|------0---------------|--2----2--------------|
--1-------------------|--2-------------------|----------------------|
----------------------|----------------------|----------------------|


  E  S S H.              E  S S H.              E  S S H.            
----------------------|----------------------|----------------------|
--1----1--------------|--1----1--------------|--1----1--------------|
--0----0--------------|--0----0--------------|--0----0--------------|
--2----2--------------|--2----2--------------|--2----2--------------|
----------------------|----------------------|----------------------|
----------------------|----------------------|----------------------|


  S S S S Q    S  S S S Q       S S S S Q    S  S S S Q     
-----------------------------|-----------------------------|
--------1-L-----------1-L----|--------0-L------------------|
------2-------------1--------|------0---------------3-L----|
----3----------0h-2----------|----0---------------5--------|
--3--------------------------|--0------------0h-4----------|
-----------------------------|-----------------------------|


  S  S S S Q    S  S S S Q       S S S S Q    S  S S S Q     
------------------------------|-----------------------------|
---------1-L-----------1-L----|--------0-L------------------|
-------2-------------1--------|------0---------------3-L----|
--0h-3----------0h-2----------|----0---------------5--------|
------------------------------|--0------------0h-4----------|
------------------------------|-----------------------------|


  S  S S S Q    S  S S S Q       S S S S Q    S S S  S Q     
------------------------------|-----------------------------|
---------1-L-----------1-L----|--------0-L------------------|
-------2-------------1--------|------0------------0h-3-L----|
--0h-3----------0h-2----------|----0------------------------|
------------------------------|--0--------------4-----------|
------------------------------|---------------1-------------|


  S  S S S Q    S  S S S Q       S S S S Q    S  S S S S S S S    
------------------------------|---------------------------------||
---------1-L-----------1-L----|--------0-L----------------------||
-------2-------------1--------|------0---------------2-------4-*||
--0h-3----------0h-2----------|----0---------------2-------5---*||
------------------------------|--0------------0h-4-------5------||
------------------------------|------------------------5--------||




Duration Legend
---------------
W - whole
H - half
Q - quarter
E - 8th
S - 16th
T - 32nd
X - 64th
. - note dotted
|-n-|  - n-tuplets


Tablature Legend
----------------
L - tied note
x - dead note
g - grace note
(n) - ghost note
> - accentuded note
NH - natural harmonic
AH - artificial harmonic
TH - tapped harmonic
SH - semi harmonic
PH - pitch harmonic
h - hammer on
p - pull off
b - bend
br - bendRelease
pb - preBend
pbr - preBendRelease
brb - bendReleaseBend
\n/ - tremolo bar dip
\n - tremolo bar dive
-/n - tremolo bar Release up
/n\ - tremolo bar inverted dip
/n - tremolo bar return
-\n - tremolo bar Release down
S - shift slide
s - legato slide
/ -  slide into from below or out of upwards
\ -  slide into from above or out of downwards
~ - vibrato
W - wide vibrato
tr - trill
TP - tremolo picking
T - tapping
S - slap
P - pop
< - fade in
^ - brush up
v - brush down
Login or Register to remove this ad.