Ads

Skyarrow Bridge (Pokémon Black and White) Guitar Tab

Submitted: Jan 28, 2015 by SilentKaito

0
Download | Listen
Game: Pokémon Black and White
Composer(s): Junichi Masuda, Go Ichinose, Hitomi Sato, Shota Kageyama, Minako Adachi, Morikazu Aoki, Satoshi Nohara
Style: Transcription
Series: Pokemon

AutoScroll: Slow | Medium | Fast
					Skyarrow Bridge

Composer: Junichi Masuda 
Game: Pokemon Black and White
Transcribed from Dr. Pamplemousse's Piano arrangement
Guitar arrangement by SilentKaito

January 26th, 2015

I transcribed the melody of the Skyarrow Bridge theme from Dr. Pamplemousse's Piano arrangment.
I hope you enjoy playing this song on a bridge!

Here are some things you will need to know:

Duration Legend
---------------
H - half
Q - quarter
E - 8th
S - 16th
. - note dotted


Tablature Legend
----------------
L - tied note



   Q    Q    Q    Q      Q    Q    Q    Q        Q    S  E   S  E   E   E   E     Q    S  E   S  S    E   S  S
E|-1--------------1----|---------------------||--1----1-------------1---3---5---|-6----5--3---------------------|
B|------1----0---------|-4-------------------||o---------4---3--L---------------|-------------3--L----L---1--3--|
G|---------------------|------3----0----2----||---------------------------------|-------------------------------|
D|---------------------|---------------------||---------------------------------|-------------------------------|
A|---------------------|---------------------||o--------------------------------|-------------------------------|
E|---------------------|---------------------||---------------------------------|-------------------------------|

   S  E   S  E   E   E.   S  S   E     Q    E   S  S  H       Q    S  E   S  Q    Q
E|-----------------------------------|----------------------|---------------------3----|
B|-1----------------------1--L---3---|-3----3---4--3--1-----|---------3---1--L---------|
G|----3---3--L---0---3---------------|----------------------|-3----3-------------------|
D|-----------------------------------|----------------------|--------------------------|
A|-----------------------------------|----------------------|--------------------------|
E|-----------------------------------|----------------------|--------------------------|

   Q    S  E   S  Q.    S  S    S  E   S  E   E   E.   S  E   E     Q.    S  S  H
E|-1----3--5---6--L-----------|-----------------------------------|-------------------|
B|----------------------4--3--|-4--3-------------------1--L---3---|-3-----4--3--1-----|
G|----------------------------|--------3--L---0---3---------------|-------------------|
D|----------------------------|-----------------------------------|-------------------|
A|----------------------------|-----------------------------------|-------------------|
E|----------------------------|-----------------------------------|-------------------|

   E   E   S  E   S  S  E.   E   E     E   S  S  S  E   S  S  S  S  S  E   E     E   S  S  S  E   S  S  E.   S  S  E 
E|-----------------------------------|-----------------------------------------|------------------------1--------------|
B|-------------------------------3---|-1---1-----------------------------------|--------------1--------------2--1------|
G|-3---3---3--3---3--L-------3-------|--------3--L--2---3--L-------------------|-3------3--L------3--L-------------3---|
D|----------------------3------------|------------------------0--1--3--0---3---|-----3---------------------------------|
A|-----------------------------------|-----------------------------------------|---------------------------------------|
E|-----------------------------------|-----------------------------------------|---------------------------------------|

   E   S  S  S  S   S  S  E.   Q      E   E   S  E   S  S  E.   E   E     E   S  S  S  E   S  S  E.   S  S  E
E|----------------------------------|-----------------------------------|---------------------------------------|
B|-1---1----------------------------|-------------------------------3---|-1---1---------------------------------|
G|--------3--L--2---3--L------------|-3---3---3--3---3--L-------3-------|--------3--L--2---3--L-------0---------|
D|------------------------3----0----|----------------------3------------|------------------------3-------4--3---|
A|----------------------------------|-----------------------------------|---------------------------------------|
E|----------------------------------|-----------------------------------|---------------------------------------|

   E   S  S  S  E   S  S  E.   S   S     E   S  S  S  E   S  H
E|-------------------------------------|-6------6--L--8---6--L------||
B|--------------1---------6----8---10--|-----6---------------------o||
G|-3------3--L------3--L---------------|----------------------------||
D|-----3-------------------------------|----------------------------||
A|-------------------------------------|---------------------------o||
E|-------------------------------------|----------------------------||

Repeat as long as you want. I would prefer just repeating twice.



Login or Register to remove this ad.