Ads

Opelucid City (White) (Pokémon Black and White) Guitar Tab

Submitted: Jan 07, 2021 by H.F. (Last updated: Jan 08, 2021)

0
Download | Listen
Game: Pokémon Black and White
Composer(s): Junichi Masuda, Go Ichinose, Hitomi Sato, Shota Kageyama, Minako Adachi, Morikazu Aoki, Satoshi Nohara
Style: Arrangement, Fingerstyle
Series: Pokemon

AutoScroll: Slow | Medium | Fast
Title: Opelucid City (White)
Album: Pokémon Black/White
Music: Go Ichinose
Tabber: H.F.

Tempo = 120

Legend
L - tied note
h - hammer on/pull off
s - slide
t - trill
^ - brush down

                                                             
E |----------------------------||---------------------------|
B |----------------------------||-2-------------------------|
G |----------------------------||o---------2L-2-------------|
D |-----------------------4----||o------4-------------------|
A |--------------------4-------||----4----------------------|
E |----------------------------||-2-------------------------|

                                                          
----------------------------|-----------------------2----|
-----------------3-----2----|--2--------------0----------|
-----------1----------------|-----------2--------2--2----|
--------3-------------------|--------2--------------1----|
-----4----------------------|-----4----------------------|
--1-------------------------|--0-------------------------|

                                                          
-----------------0-----0----|-----------------2--0--5----|
-----2-----1--------4-------|-----------0--2-----0--3----|
-----------1----------------|--------0--------------3----|
----------------------------|-----2-----------------4----|
----------------------------|--4-------------------------|
----------------------------|----------------------------|

                                                          
-----0----------------------|-----------------0----------|
-----0-----3-----2-----3L---|--3-----------3-----3-------|
-----------5-----------2L---|--2--1--2--------------2L---|
----------------------------|-----------------------4L---|
-----------------------2L---|--2-------------------------|
----------------------------|-----------------------0L---|

                                                          
----------------------------|----------------------------|
-----------0----------------|----------------------------|
--2--------------------2----|--1-----------1--------0L---|
--4--------2--------2-------|--2--------------2--4-------|
----------------------------|--0--------------------4L---|
--0-------------------------|----------------------------|

                                                          
--------------2--------0----|-----------------------5L---|
--------------------2-------|-----------3--2--3-----5L---|
--0-----0-----2-------------|--------2-------------------|
-----4----------------------|-----4----------------------|
--4-------------------------|--5-------------------------|
----------------------------|-----------------------3L---|

                                                          
--5--0----------------------|--------------------0--2----|
--5--3--------0--3-----2L---|--2-----------2--3-----3----|
-----0----------------------|--------2-------------------|
--------------2--4-----2L---|--2--2-----2----------------|
-----------------------0L---|--0--------------------0----|
--3-------------------------|----------------------------|

                                                          
----------------------------|--------------------0--2L---|
-----3-----2-----0-----2L---|--2-----------2--3-----3L---|
-----2-----------------1L---|--1-----1-------------------|
----------------------------|-----2-----2----------------|
-----------------------0L---|--0-------------------------|
----------------------------|-----------------------4L---|

                                                          
--2-----2--1L-1-------------|----------------------------|
--3--3-----2L-2-------------|--2--------------0----------|
-----4----------------------|-----------2--------2-------|
----------------------------|--------4-------------------|
-----------4L-4--------4----|-----4----------------------|
--4-------------------------|--2-------------------------|

                                                          
----------------------------|-----------------------2L---|
--0--------------3-----2----|--2--------------0-----2L---|
-----------1-----1----------|--2-----------2-----2-------|
--------3-------------------|--------2--------------1L---|
-----4----------------------|-----4-----4----------------|
--1-------------------------|--0-------------------------|

                                                          
--2--------------0-----0L---|--0--------------2--0--5----|
--2--------1--------4-------|-----------0--2-------------|
-----------1--------2--0L---|--0-----0--------------3----|
--1--------------2----------|-----2-----------------4----|
-----------------------4L---|--4-------------------------|
----------------------------|----------------------------|

                                                          
-----0----------------------|-----------------0----------|
-----0-----3-----2-----3L---|--3--2--3-----3-----3--3L---|
-----------5----------------|-----------------------2L---|
-----2-----0-----2-----3L---|--3-------------------------|
-----------------4-----2L---|--2-------------------------|
----------------------------|-----------------1-----0L---|

                                                          
-----------0----------------|----------------------------|
--3--------0----------------|-----------------------0L---|
--2-----2--------------2----|--1-----------1--------0L---|
-----2--------------2--0----|--2--------------2--4-------|
----------------------------|--0--------------------0L---|
--0-------------------------|----------------------------|

                                                          
-----------2-----------0----|-----------------------5----|
--0--------2-----2-----2----|--------2--3--2--3-----2----|
--0-----0--2-----4----------|-----2----------------------|
-----4----------------------|--0--------------------3----|
--0-------------------------|----------------------------|
----------------------------|----------------------------|

                                                          
-----0----------------------|--------------------0--2----|
-----3--------0--3-----2----|--------------2h-3-----3----|
-----0--------2--4-----2----|--------2-------------------|
----------------------------|-----2-----2----------------|
----------------------------|--0--------------------0----|
--------3-------------------|----------------------------|

                                                          
----------------------------|--------------------0--2----|
-----3-----2-----0-----2----|--------------2h-3-----3----|
-----4-----2-----------1----|--------1-------------------|
-----------------4----------|-----2-----2----------------|
----------------------------|--0--------------------0----|
----------------------------|----------------------------|

                               ^
--------------------0-------|--2----|--2--4--5--4--2--4----|
-----3-----2-----0----------|--3----|--3--5--7--5--3--5----|
-----4-----1--------1-------|--2----|----------------------|
-----------------2----------|--0----|--0-------------------|
----------------------------|-------|----------------------|
----------------------------|-------|----------------------|


--0-------------------------------------------------|
--------------------------------------------4s-5----|
--2-------------------------------------------------|
----------------------------------------------------|
--4--------------------------4--------4-------------|
----------------------------------------------------|


----------------------------------------------------|
--2-----------------------------------------0h-2----|
--3-------------------------------------------------|
----------------------------------------------------|
----------------------------------------------------|
--2--------------------------2--------2-------------|


----------------------------------------------------|
--3-----------------------3--------2--------0-------|
--4-----------------------4--------2--------1-------|
----------------------------------------------------|
--2-------------------------------------------------|
----------------------------------------------------|


----------------------------------------------------|
----------------------------------------------------|
--2-----------------4--1----------------------------|
--4-----------------------------------------4h-6----|
----------------------------------------------------|
--0--------------------------0--------0-------------|


--0-----------------------------------0t------------|
--------------------------------------------4h-5----|
--6-------------------------------------------------|
----------------------------------------------------|
--0--------------------------0--------0-------------|
----------------------------------------------------|


--2-------------------------------------------------|
----------------------------------------------------|
--3-----------------------------------4h-2--1s-2----|
----------------------------------------------------|
----------------------------------------------------|
--2--------------------------2----------------------|


--2-------------------------------------------------|--5--4--2--4-----2----|
--3-------------------------------------------------|--7--5--4--5--4--4----|
----------------------------------------------------|--------------4-------|
--0-----------------------------------4-------------|----------------------|
-----------------------------0--------------3-------|----------------------|
----------------------------------------------------|--4-------------------|


--0-------------------------------------------------|
--2-----------------------------------------4h-5----|
----------------------------------------------------|
----------------------------------------------------|
--4--------------------------4--------4-------------|
----------------------------------------------------|


--5--------------------------4----------------------|
--7--------------------------------5--2--------2----|
-----------------------------------------2h-4-------|
--4-------------------------------------------------|
----------------------------------------------------|
----------------------------------------------------|


--------------------5-------------------------------|
--3--------2-----------------3--------2-----0-------|
--4-------------------------------------------------|
----------------------------------------------------|
--2--------------------------2----------------------|
--------------------------------------2-------------|


----------------------------------------------------|
----------------------------------------------------|
--2-----------------4--1-----------------------1----|
--4-----------------------------------------4-------|
----------------------------------------------------|
--0--------------------------0--------0-------------|


----------------------------------------------------|
----------------------------------------------------|
--2-------------------------------------------------|
--2-------------------------------------------------|
--0--------------------------0--------0-------------|
--------------------------------------------4-------|


----------------------------------------------------|
-----------0----------------------------------------|
--2-----------------1--------------------------1----|
--2--------4--------0-----------------------4-------|
----------------------------------------------------|
--0--------------------------0--------0-------------|


----------------------------------------------------|
----------------------------------------------------|
--2-------------------------------------------------|
--2-------------------------------------------------|
--0--------------------------0--------0-------------|
--------------------------------------------2-------|


---------------------------------------------------|||
-----------2---------------------------------------|||
--4-----------------1-----------------------------o|||
--4-----------------3-----------------------4-----o|||
-----------4--------4-----------------4------------|||
--4------------------------------------------------|||

Login or Register to remove this ad.