Ads

Nuvema Town (Pokémon Black and White) Guitar Tab

Submitted: Jul 31, 2012 by GuitarGuy (Last updated: Aug 01, 2012)

5
Average: 5 (7 votes)
Download | Listen
Game: Pokémon Black and White
Composer(s): Junichi Masuda, Go Ichinose, Hitomi Sato, Shota Kageyama, Minako Adachi, Morikazu Aoki, Satoshi Nohara
Style: Arrangement, Fingerstyle
Series: Pokemon

AutoScroll: Slow | Medium | Fast
Nuvema Town
Arranged by: Romyl Lopez a.k.a GuitarGuy
Capo: 0
Dropped D Tuning

                       ^                                                       
     E  E  E  E  E  E  Q        E  Q     E  E  E  E  E     E  E  Q     E  Q. 
E||--2--------2--------3-----|--L--5-----L--2--------0--|-----5--------------------|
B||--------3-----3-----3-----|--L-----------------3-----|--3-----5-----L--3--------|
G||-----2-----------2--3-----|--L--------------2--------|--------3-----L--L--------|
D||--0-----------------------|--------------0-----------|--L-----------------------|
A||--------------------5-----|--L-----------------------|--------5-----------------|
D||--------------------------|--------------------------|--------------------------|

    
                          ^                                      ^              
     E  E  E  E  E  T  S. Q     E  E  E  E  E  E  E  E     E  E  Q.       Q.      
  |--5--------------3p-2--3--|--L-----2--0--------------|-----2--0-----------------|
  |--3--------3--------------|--------------3-----------|--L-----3--------3--------|
  |--2-----2-----2--------0--|--L-----------------------|--------0--------0--------|
  |-----0-----------------0--|--L--0--------------0--2--|--0-----------------------|
  |-----------------------1--|--L--------------0--------|--------1-----------------|
  |--0-----------------------|--------------0-----------|--------------------------|

                       ^
     E  E  E  E  E  E  E  E     E  E  E  E  E  E  E  E     E  E  E  E  E  Q.      
  |--5-----------3--2--3-----|--------2--0--------------|-----------------2--------|
  |--3--------3--------0-----|--0--2--------3-----------|--------------3-----------|
  |--2-----2-----------0-----|--------------------2--4--|--2--------2--------------|
  |-----0-----------------5--|--L--------------4--------|-----4--------------------|
  |--------------------4-----|--------------2-----------|--L-----0-----------------|
  |--0-----------------------|--------4-----------------|--------------------------|


     E  E  E  E  E  E  Q        E  Q.       E  E  E  E     E  S  T  T E  E  E  E  E  E
  |--7--------------10-9-----|--L--7--------5-----------|--L--2h-5p-2-------------0--2--|
  |-----------0--------------|--------------------------|-------------3--------3--------|
  |--------0-----0-----------|--------------------------|-------------------4-----------|
  |-----0--------------------|--------------------4-----|----------------4--------------|
  |--------------------0-----|--L--------------4-----4--|-------------2-----------------|
  |--5-----------------------|--------------4-----------|--4----------------------------|

                                                                    ^
     E  E  E  E  E  E  Q        E  Q.       E  E  E  E     E  E  E  E  H 
  |--3-----------2--0--------|--------------------------|--------------------------|
  |-----------0--------3-----|--L--2--------3-----------|--------------------------|
  |--------0-----------2-----|--L-----------2--------2--|--4--2--0-----------------|
  |-----0--------------------|--------------------0-----|--0--------4--L-----------|
  |--------------------0-----|--L--------------0--------|-----------0--L-----------|
  |--5-----------------------|--------------0-----------|--0--------0--L-----------|


                       ^     
     E  E  E  E  E  E  Q        E  Q     E  E  E  E  E     E  E  Q     E  Q. 
  |--2--------2--------3-----|--L--5-----L--2--------0--|-----5--------------------|
  |--------3-----3-----3-----|--L-----------------3-----|--3-----5-----L--3--------|
  |-----2-----------2--3-----|--L--------------2--------|--------3-----L--L--------|
  |--0-----------------------|--------------0-----------|--L-----------------------|
  |--------------------5-----|--L-----------------------|--------5-----------------|
  |--------------------------|--------------------------|--------------------------|


                          ^                                      ^
     E  E  E  E  E  T  S. Q     E  E  E  E  E  E  E  E     E  E  Q.       Q. 
  |--5--------------3p-2--3--|--L-----2--0--------------|-----2--0-----------------|
  |--3--------3--------------|--------------3-----------|--L-----3--------3--------|
  |--2-----2-----2--------0--|--L-----------------------|--------0--------0--------|
  |-----0-----------------0--|--L--0--------------0--2--|--0-----------------------|
  |-----------------------1--|--L--------------0--------|--------1-----------------|
  |--0-----------------------|--------------0-----------|--------------------------|



		       ^                                         
     E  E  E  E  E  E  E  E     E  E  E  E  E  E  E  E     E  E  E  E  E  Q.     
  |--5-----------3--2--3-----|--------2--0--------------|-----------------2--------|
  |--3--------3--------0-----|--0--2--------3-----------|--------------3-----------|
  |--2-----2-----------0-----|--------------------2--4--|--2--------2--------------|
  |-----0-----------------5--|--L--------------4--------|-----4--------------------|
  |--------------------4-----|--------------2-----------|--L-----0-----------------|
  |--0-----------------------|--------4-----------------|--------------------------|
 

     E  E  E  E  E  E  Q        E  Q.       E  E  E  E     E  S  T  T E  E  E  E  E  E   
  |--7--------------10-9-----|--L--7--------5-----------|--L--2h-5p-2-------------0--2--|
  |-----------0--------------|--------------------------|-------------3--------3--------|
  |--------0-----0-----------|--------------------------|-------------------4-----------|
  |-----0--------------------|--------------------4-----|----------------4--------------|
  |--------------------0-----|--L--------------4-----4--|-------------2-----------------|
  |--5-----------------------|--------------4-----------|--4----------------------------|

                                                                    ^
     E  E  E  E  E  E  Q        E  Q.       E  E  E  E     E  E  E  E  H         
  |--3-----------2--0--------|--------------------------|--------------------------||
  |-----------0--------3-----|--L--2--------3-----------|--------------------------||
  |--------0-----------2-----|--L-----------2--------2--|--4--2--0--2--L-----------||
  |-----0--------------------|--------------------0-----|--0--------4--------------||
  |--------------------0-----|--L--------------0--------|-----------5--L-----------||
  |--5-----------------------|--------------0-----------|--0--------0--L-----------||


  





Duration Legend
---------------
W - whole
H - half
Q - quarter
E - 8th
S - 16th
T - 32nd
X - 64th
. - note dotted
|-n-|  - n-tuplets


Tablature Legend
----------------
L - tied note
x - dead note
g - grace note
(n) - ghost note
> - accentuded note
NH - natural harmonic
AH - artificial harmonic
TH - tapped harmonic
SH - semi harmonic
PH - pitch harmonic
h - hammer on
p - pull off
b - bend
br - bendRelease
pb - preBend
pbr - preBendRelease
brb - bendReleaseBend
\n/ - tremolo bar dip
\n - tremolo bar dive
-/n - tremolo bar Release up
/n\ - tremolo bar inverted dip
/n - tremolo bar return
-\n - tremolo bar Release down
S - shift slide
s - legato slide
/ -  slide into from below or out of upwards
\ -  slide into from above or out of downwards
~ - vibrato
W - wide vibrato
tr - trill
TP - tremolo picking
T - tapping
S - slap
P - pop
< - fade in
^ - brush up
v - brush down
Login or Register to remove this ad.

7 comments on Nuvema Town

amazing~

5

amazing~

Thank you :D I'm glad you

Thank you :D I'm glad you liked it!

hey, nice job on this one!

5

hey, nice job on this one! You do some really good pokemon arrangements~

Thank you! I try my best to

Thank you! I try my best to make them. I'm still trying to get better. KabukiBear's tutorial helped me a lot.

Very good!

5

Very good!

Thanks! :D

Thanks! :D

I’m having a bit of trouble

5

I’m having a bit of trouble finding which fingers to use. What I’ve learned so far is beautiful, though!