Ads

Lacunosa Town (Pokémon Black and White) Guitar Tab

Submitted: Sep 29, 2020 by H.F. (Last updated: Oct 02, 2020)

5
Average: 5 (1 vote)
Download | Listen
Game: Pokémon Black and White
Composer(s): Junichi Masuda, Go Ichinose, Hitomi Sato, Shota Kageyama, Minako Adachi, Morikazu Aoki, Satoshi Nohara
Style: Arrangement, Fingerstyle
Series: Pokemon

AutoScroll: Slow | Medium | Fast
Title: Lacunosa Town
Album: Pokémon Black/White
Music: Hitomi Sato
Tabber: H.F.

Tempo = 144

Legend
L - tied note
h - hammer on/pull off

E |----------------------------|----------------------------|
B |-----------3h-1-------------|-----------0----------------|
G |--------0--------------0----|--------------2-------------|
D |-----2--------------2-------|--------0-----------0--2----|
A |--0-------------------------|-----3----------------------|
E |----------------------------|--0-------------------------|


----------------------------|----------------------------|
-----------3--1-------------|-----------0--1h-0--1--3----|
-----0--2--------------2----|--------0-------------------|
--------------------2-------|-----0----------------------|
----------------------------|----------------------------|
--1-------------------------|--0-------------------------|


----------------------------|----------------------------|
--------------------1--0L---|--0-------------------------|
-----0-----------0----------|--------------0-------------|
-----2--------2-------------|-----0--------0--3--2--0L---|
--0--------0----------------|-----2----------------------|
----------------------------|--0--------0----------------|


----------------------------|----------------------------|
----------------------------|--------1-------------------|
----------------------------|-----0-----------0----------|
--0--2--------------0--2L---|--2--------------0----------|
--------3-----2--3----------|--------------2-------------|
--1-----------1--1----------|--0-------------------------|


--7-----8--0-----5--3-------|-----1h-0-----0-----5--3L---|
----------------------------|-----------3----------------|
-----------------0----------|-----0--------0--5-----2----|
-----7-----------0----------|-----0--------0--------2----|
--8-------------------------|--0--------0-----0----------|
--------------0-------------|----------------------------|


--3-----------1--0h-1--3L---|--3--5--3-------------------|
--------1-------------------|----------------------------|
-----2-----------0----------|-----0--------0h-2-----0----|
-----2-----------0----------|-----0--------0h-2----------|
----------------------------|--0-----0-----0-------------|
--1-----------0-------------|----------------------------|


--7-----8--0-----5--3-------|-----------1--0-----3-------|
----------------------------|-----1h-3--------------1----|
-----------------0----------|-----0--------0--------2----|
-----7-----------0----------|-----0--------0--------2----|
--8-------------------------|--0--------0-----0----------|
--------------0-------------|----------------------------|


--------0-----1--0----------|-----------------------0----|
--------------------1--3----|-----3--1--------0--1-------|
-----2-----------0----------|--0-----0-------------------|
-----2-----------0----------|--0-----0-------------------|
----------------------------|--0-----0-----------0-------|
--1-----------0-------------|-----------------0----------|


--------0-------------------|-----------------------0----|
--3--------------1--0-------|-----------------0--1-------|
-----2-----0--------0-------|-----0--------0-------------|
-----2--------------0-------|-----0--------0-------------|
-----------------------0L---|--0--------0----------------|
--1--------0-----0----------|--------------------3-------|


--------0-------------------|-----------------------5----|
--3--------------1--0-------|-----------------0----------|
-----2-----0--------0-------|-----0--------0-----5-------|
-----2--------------0-------|-----0--------0-------------|
-----------------------0L---|--0--------0----------------|
--1--------0-----0----------|--------------------3-------|


--3-----5--------0----------|-----------------------3----|
-----------3--------0-------|--------------1--0--1-------|
-----2-----------0----------|--------0--------0----------|
-----2-----------0----------|-----------2-----2----------|
-----------------------0L---|--0-----------------0-------|
--1--------0----------------|----------------------------|


-----------------7-----3----|----------------------------|
-----1----------------------|-----0-----0-----0----------|
-----2--------5-------------|-----0-----0-----0----------|
--0--------0----------------|----------------------------|
----------------------------|----------------------------|
----------------------------|--3--------3-----3----------|


--------------0--------8----|--------7-----5--7-----8----|
--------0--------6h-8-------|----------------------------|
--------0--------0----------|--0-----7-----0--7----------|
----------------------------|----------------------------|
----------------------------|----------------------------|
--8-----------8-------------|----------------------------|


----------------------------|----------------------------|
-----------1----------------|-----------------0----------|
--------2--------2----------|--------1-------------------|
----------------------------|--------1--------0----------|
--8-----------3-------------|----------------------------|
----------------------------|--1-----------3-------------|


--7-----8--0-----5--3-------|-----1h-0-----0-----5--3L---|
-----------------0----------|-----0-----3-----1----------|
-----------------0----------|-----0-----------3----------|
--------7-------------------|----------------------------|
--8-------------------------|--------------0-------------|
--------------3-------------|--0-------------------------|


--3--------1-----0-----0----|-----------------0---------|||
--------1-----0--0--3--1----|-----3-----3-----0---------|||
-----2--------0--0----------|-----4-----4--------------o|||
--0-------------------------|--------------------------o|||
----------------------------|--3--------3-----3---------|||
--------------3--3----------|---------------------------|||

Login or Register to remove this ad.