Castelia City (Pokémon Black and White) Guitar Tab

Submitted: Aug 31, 2012 by Blode4

4.5
Average: 4.5 (2 votes)
Download | Listen
Game: Pokémon Black and White
Composer(s): Junichi Masuda, Go Ichinose, Hitomi Sato, Shota Kageyama, Minako Adachi, Morikazu Aoki, Satoshi Nohara
Style: Transcription
Series: Pokemon

AutoScroll: Slow | Medium | Fast
Castelia City
Pokemon Black and White
Junichi Masuda
Tabbed by Blode4
8/28/12

Standard Tuning


e|--8--8-8-9p8-------------------------8-9p8--------------|
B|o------------9----9-9-11-9-11--11-11-------11-8-11-9-9--|
G|---------------10---------------------------------------|
D|--------------------------------------------------------|
A|o-------------------------------------------------------|
E|--------------------------------------------------------|

                                  |1st Ending
e|----------------------------8---|-----------------|
B|------11--------11-9-11--11---9-|11-9--9---9h11--o|
G|-8-8-------8-8------------------|-----------------|
D|--------------------------------|-----------------|
A|--------------------------------|----------------o|
E|--------------------------------|-----------------|

 |2nd Ending
e|----------8-11-|--------------------------------------------------8----|
B|-11--9h11------|----9-11-9-12-11-9--12-11-9----------11-9-9-11-11---9--|
G|---------------|-10-------------------------9---8-8--------------------|
D|---------------|-------------------------------------------------------|
A|---------------|-------------------------------------------------------|
E|---------------|-------------------------------------------------------|


e|-9-9p8-9-8--------------------------------------------------||
B|-----------11-9--------9h11-------9-9-11-11-----------9h11-o||
G|----------------10--10------10-12------------8-8--8---------||
D|------------------------------------------------------------||
A|-----------------------------------------------------------o||
E|------------------------------------------------------------||

Repeat from beginning


Tablature Legend
----------------
 h   - hammer-on
 p   - pull-off
 |o  - repeat from here
 o|  - repeat
Login or Register to remove this ad.