Ads

Accumula Town (Pokémon Black and White) Guitar Tab

Submitted: Nov 12, 2011 by Kiku

5
Average: 5 (4 votes)
Download | Listen
Game: Pokémon Black and White
Composer(s): Junichi Masuda, Go Ichinose, Hitomi Sato, Shota Kageyama, Minako Adachi, Morikazu Aoki, Satoshi Nohara
Style: Fingerstyle, Transcription
Series: Pokemon

This song is also called Karakusa Town

AutoScroll: Slow | Medium | Fast
Accumula Town (Karakusa Town)
Pokémon Black and White
Composed by Shota Kageyama
Tabbed by Kiku
2011-11-12

BPM: 112

I suggest not using a pick to strum the chords in the beginning, as you will
have to switch to fingerstyle anyway later in the song. Also remember that some
of the chords have a duration of a 16th note, so you will have to mute them
after strumming to prevent them from ringing out too long.

I consider this song rather hard, so be sure to practice slowly and use your
own fingerings if it makes it simpler for you.


                                Accumula Town                                   


Guitar
     E  E.  E.  S E.  S S E     E  E.  E.  S E.  S S E   
E||-----0---0---0------------|-----0---0---0------------|
B||-----0---0---0-----2---2--|--L--2---2---2-----2---4--|
G||-----1---1---1-----2---2--|--L--2---2---2-----2---4--|
D||-----2---2---2-----2---2--|--L--4---4---4-----2---4--|
A||-------------------4---4--|--L----------------4---6--|
E||--------------------------|--------------------------|


  E  E.  E.  S S Q.        E  E.  E.  S S Q.          E  E.  E.  S E.  S S E   
-----0---0---0----------|-----0---0---0----------||------0---0---0------------|
--L--0---0---0----------|-----0---0---0----------||------0---0---0-----2---2--|
--L--1---1---1----------|-----1---1---1----------||*-----1---1---1-----2---2--|
--L--2---2---2----------|-----2---2---2----------||*-----2---2---2-----2---2--|
--L---------------------|------------------------||--------------------4---4--|
------------------------|------------------------||---------------------------|


  E  E.  E.  S E.  S S E     E  E.  E.  S S Q.        E  E.  E.  S S Q.      
-----0---0---0------------|-----0---0---0----------|-----0---0---0----------|
--L--2---2---2-----2---4--|--L--0---0---0----------|-----0---0---0----------|
--L--2---2---2-----2---4--|--L--1---1---1----------|-----1---1---1----------|
--L--4---4---4-----2---4--|--L--2---2---2----------|-----2---2---2----------|
--L----------------4---6--|--L---------------------|------------------------|
--------------------------|------------------------|------------------------|


  E  S S S S S S S S S S S S S S    S S S S S S S S S S S S S S S S  
-----------0-------0-------0-----|----3-----------------------------|
---------2-------2-------1-------|--5---------4-------4-----3-6-----|
-------1-------1-------2-------5-|----------4-------4-----3---------|
-------------2-------0-----------|--------4-------4---------------3-|
-----0-----------0-----------0---|--L-----------6---------------5---|
---------------------------------|------4-----------4---3-----------|


  S S S S S S S S S S S S S S S S    S S S S S S S S S S S S S S S S  
----------------------------------|------------2---------------0-----|
----3-------2-------2-------4-----|----4-----3---------3-----1-------|
--3-------2-------2-------5-------|--5-----2---------4-----1---------|
--------2-------2-------4-------4-|----------------4---------------2-|
--L-----------4---------------3---|--L---2-----------2---1-------1---|
------2-----------2---4-----------|--------------2-------------------|


  S S S S S S S S S S S S S S S S    S S S S S S S S S S S S S S S S  
------------0-------0-------------|----------------------------------|
----2-----2-------2---------4-----|--4-7-------4-------4-------3-----|
--1-----1-------1---------4-----4-|----------4-------4-------4-------|
--------------2---------4---------|--------4-------4-------3-------3-|
--L---0-----------0---0-------0---|--L-----------6-------4-----------|
----------------------------------|------4-----------4-----------4---|


  S S S S S S S S S S S S S S S S    S S S S S S S S S S S S S S S S  
----------------------------------|----0-----------------------4-----|
----3-------2-------2-------1-----|--1-------0-4-------0-----4-------|
--4-------2-------2-------2-----2-|--------1---------1-----4-------1-|
--------2-------2-------2---------|----------------2-----------------|
--------------4---------------3---|--L-----------2---------------2---|
--L---2-----------2---1-----------|------0-----------0---0-----------|


  S S E  S E.  S E.  S S E     E  E.  E.  S E.  S S E   
------0----0---0------------|-----0---0---0------------|
--0-4-0----0---0-----2---2--|--L--2---2---2-----2---4--|
------1----1---1-----2---2--|--L--2---2---2-----2---4--|
------2----2---2-----2---2--|--L--4---4---4-----2---4--|
---------------------4---4--|--L----------------4---6--|
--0-------------------------|--------------------------|


  E  E.  E.  S S Q.        E  E.  E.  S S Q.        
-----0---0---0----------|-----0---0---0-----------||
--L--0---0---0----------|-----0---0---0-----------||
--L--1---1---1----------|-----1---1---1----------*||
--L--2---2---2----------|-----2---2---2----------*||
--L---------------------|-------------------------||
------------------------|-------------------------||




Duration Legend
---------------
W - whole
H - half
Q - quarter
E - 8th
S - 16th
T - 32nd
X - 64th
. - note dotted
|-n-|  - n-tuplets


Tablature Legend
----------------
L - tied note
x - dead note
g - grace note
(n) - ghost note
> - accentuded note
NH - natural harmonic
AH - artificial harmonic
TH - tapped harmonic
SH - semi harmonic
PH - pitch harmonic
h - hammer on
p - pull off
b - bend
br - bendRelease
pb - preBend
pbr - preBendRelease
brb - bendReleaseBend
\n/ - tremolo bar dip
\n - tremolo bar dive
-/n - tremolo bar Release up
/n\ - tremolo bar inverted dip
/n - tremolo bar return
-\n - tremolo bar Release down
S - shift slide
s - legato slide
/ -  slide into from below or out of upwards
\ -  slide into from above or out of downwards
~ - vibrato
W - wide vibrato
tr - trill
TP - tremolo picking
T - tapping
S - slap
P - pop
< - fade in
^ - brush up
v - brush down
Login or Register to remove this ad.

1 comment on Accumula Town

I'm addicted to this, it's

5

I'm addicted to this, it's great