Ads

Ship of Regret and Sleep (Xenogears) Guitar Tab

Submitted: May 09, 2008 by Kabukibear (Last updated: Oct 16, 2009)

5
Average: 5 (7 votes)
Download | Listen
Game: Xenogears
Composer(s): Yasunori Mitsuda
Style: Arrangement, Fingerstyle
Series: Xeno

AutoScroll: Slow | Medium | Fast
Ship of Regret and Sleep                             
~Xenogears~
Composed by: Yasunori Mitsuda
Tabbed by: Justin Lincoln

Drop D Tuning
 (Capo 1)



      Q    E  E  Q       Q    Q    Q       Q    Q    Q       Q    Q    Q     
E||--------2--0--2----|-----------------|-----------------|-----------------|
B||-------------------|--3----2---------|-------0----2----|-----------------|
G||*--4----------4----|------------4----|--3--------------|-------1----3----|
D||*-------4----------|------------4----|-----------------|--4---------4----|
A||---2---------------|-----------------|------------4----|-----------------|
D||-------------------|-----------------|--4--------------|-----------------|


  Q    Q    Q       Q    Q    Q       Q    Q    Q       Q    Q    Q     
-----------------|------------2----|--2----0---------|-----------------|
--0--------------|-----------------|------------0----|-------0----2----|
-------6----7----|--7----2---------|-----------------|--3--------------|
------------5----|------------0----|------------2----|------------4----|
-----------------|-------0---------|-------2---------|-------4---------|
--5--------------|--0--------------|--2--------------|--4--------------|


  Q    Q    Q       Q    E  E  E  E     Q    Q    Q       Q    Q    Q     
-------5----5----|--7----5--3-----0--|--2----3----5----|--0--------------|
--3--------------|-------------3-----|-----------------|--3---------2----|
-----------------|-------------0-----|-----------------|-------2---------|
------------0----|-------------------|------------0----|-----------------|
-----------------|-------------------|-----------------|--0--------------|
--0--------------|--5----------------|--0--------------|-----------------|


                                                           ^             
  Q    Q    Q       Q    E  E  E  E     Q    Q    Q        H.            
-------2----2----|--3----2--0-----0--|-------2----5----|--10------------|
--3--------------|-------------3-----|--3--------------|---0------------|
------------4----|-------------3-----|------------2----|----------------|
-------4---------|-------4-----------|-------4---------|----------------|
--2--------------|--1----------------|--0--------------|----------------|
-----------------|-------------------|-----------------|---6------------|


  H        E  E     Q    Q    Q       Q    Q    Q       H        Q     
--L--------9--7--|--5----3----2----|--0---------0----|--2-------------|
--L--------------|-----------------|-------3---------|--0--------2----|
-----------------|-----------------|------------2----|----------------|
-----------------|------------2----|-------2---------|----------------|
-----------------|-------2---------|--0--------------|-----------4----|
--L--------------|--2--------------|-----------------|--4-------------|


  H.                Q    Q    Q       Q    Q    Q       Q    Q    Q     
----------------||-----------------|-----------------|--0--------------|
----------------||--3----2----0----|-------0----2----|-------3----2----|
--3------------*||------------0----|--3--------------|------------3----|
--4------------*||-------0---------|------------4----|-------4---------|
----------------||-----------------|-------4---------|--1--------------|
----------------||--5--------------|--4--------------|-----------------|


  Q    Q    Q       Q    Q    Q       Q    Q    Q       Q    Q    Q     
-------0----2----|--3----2---------|-----------------|-----------------|
--3---------0----|------------5----|--3--------------|--0--------------|
-----------------|-----------------|------------6----|-----------------|
-------4---------|-------2---------|-------4---------|-------4----0----|
--2--------------|-----------------|-----------------|--2--------------|
-----------------|--2--------------|--4--------------|-----------------|

       (D.C.)
  H.             
---------------||
--0------------||
---------------||
---------------||
--2------------||
---------------||




Duration Legend
---------------
W - whole
H - half
Q - quarter
E - 8th
S - 16th
T - 32nd
X - 64th
. - note dotted
|-n-|  - n-tuplets


Tablature Legend
----------------
L - tied note
^ - brush up
(D.C.) - Da Capo; go back to the very beginning
Login or Register to remove this ad.

6 comments on Ship of Regret and Sleep

Another stellar arrangement.

5

Another stellar arrangement.

Tab like this is what made

5

Tab like this is what made the site grows even famous. :)

Great tab for my favorite song in the game

5

I like this one a lot. The only thing I'd change is the 3rd to last bar
From this:
|-----------------|
|--3--------------|
|------------6----|
|-------4---------|
|-----------------|
|--4--------------|
To this:
CIV (barre on four)
|-----------------|
|--7--------------|
|------------6----|
|-------4---------|
|-----------------|
|--4--------------|

sounds nice, but the melody

sounds nice, but the melody doesn't move like that so I didn't.

Ah =)

An aesthetic choice =)

Thanks for this amazing tab!

5

Thanks for this amazing tab!