Ads

Faraway Promise (Xenogears) Guitar Tab

Submitted: Oct 06, 2008 by Kabukibear (Last updated: Nov 14, 2009)

5
Average: 5 (10 votes)
Download | Listen
Game: Xenogears
Composer(s): Yasunori Mitsuda
Style: Arrangement, Fingerstyle
Series: Xeno

AutoScroll: Slow | Medium | Fast
Faraway Promise                                 
~Xenogears~
Composed by: Yasunori Mitsuda
Arranged by: Justin Lincoln

(Capo 5)


     Q.     E  Q    Q       Q    Q    Q    Q       H        Q    Q     
E||--0-------------------|-----------------0----|--3--------5---------|
B||--1--------------1----|--3----1----3---------|--3--------7---------|
G||---------0--L---------|----------------------|----------------7----|
D||----------------------|----------------------|---------------------|
A||----------------------|-----------------3----|--0------------------|
E||----------------------|------------3---------|---------------------|


  H        Q    Q       Q.     E  Q    Q       H        Q    Q     
--8--------7----3----|--0-------------------|--3--------2---------|
---------------------|--1--------------1----|---------------------|
--7--------7---------|---------0--L---------|--2--------2---------|
--5------------------|----------------------|--0------------------|
---------------------|--3-------------------|----------------0----|
---------------------|----------------------|---------------------|


  H.           Q       W                   E.  S E  E  E.  S E  E   
--3-----------------|-------------------|--------------------------|
--3------------3----|-------------------|--3---3-L--3--3---1-L--0--|
--------------------|--0----------------|--0-----------------------|
---------------0----|-------------------|--2-----------------------|
--2-----------------|-------------------|--3-----------------------|
--------------------|--3----------------|--------------------------|


  H        Q    Q       Q.     E  Q.     E     Q.     E  E  Q    E   
---------------------|----------------------|-----------------------|
---------------------|--1------0--0---------|-----------------------|
--2--------0----2----|--0-------------------|--0------2--L--0-------|
--4------------------|--0---------L------0--|--------------------0--|
--5------------------|----------------------|-----------------------|
---------------------|--3---------L---------|-----------------------|


  E.  S E  E  E.  S E  E     E.  S E  E  Q    Q       Q.     E  Q.     E   
-----------3--3---2-L--0--|--0---------------------|----------------------|
--3---3-L-----------------|------3-L--3--L---------|--0------3--L---------|
--0-----------------------|--2----------------2----|--0---------L---------|
--2-----------------------|--4---------------------|--2----------------4--|
--3-----------------------|--5---------------------|----------------------|
--------------------------|------------------------|----------------------|


  Q.     E  Q    Q       E.  S E  E  E.  S E  E     H        Q    Q     
----------------------|--------------------------|---------------------|
----------------------|--3---3-L--3--3---1-L--0--|---------------------|
----------------------|--0-----------------------|--2--------0----2----|
--5------4--L----0----|--2-----------------------|--4------------------|
----------------------|--3-----------------------|--5------------------|
----------------------|--------------------------|---------------------|


  Q.     E  Q.     E     Q.     E  E  Q    E     E.  S E  E  E  Q    E   
----------------------|-----------------------|-------------------------|
--1------0--0---------|-----------------------|-----------------3----3--|
--0-------------------|--0------2--L--0-------|--0--------0--L----------|
--0---------L------0--|--------------------0--|--2---4-L----------------|
----------------------|-----------------------|--3----------------------|
--3---------L---------|-----------------------|-------------------------|


  E  Q    E  Q    E  E     H.           Q       Q.     E  Q    E  E   
------------------------|--------------------|--------------------3--|
--3--0------------------|--------------------|-----------------------|
----------2--L----0-----|--0-----------------|-----------------0-----|
--4------------------4--|--0------------0----|-----------------------|
--5---------------------|--2-----------------|---------0--L----2-----|
------------------------|--------------------|--3--------------------|


  Q.     E  Q    Q       Q.     E  Q    E  E     Q.     E  Q    E  E   
--2---------3---------|--2---------0----------|-----------------------|
--0-------------------|--1---------1-------3--|--3-----------------3--|
--0-------------------|--0------0--L----------|--0------2--L----0-----|
--2--------------2----|-----------------------|--0--------------------|
---------2--L---------|--3--------------3-----|--2--------------------|
----------------------|-----------------------|-----------------------|


  E.  S E  E  Q    Q       Q.     E  Q    Q       Q.     E  Q    E  E   
-------------------3----|--2---------3---------|--2---------0----------|
--3---0-L---------------|--0-------------------|--1---------1-------3--|
-----------2--L---------|--0-------------------|--0------0--L----------|
--4-----------2----0----|--2--------------2----|-----------------------|
--0---------------------|---------2--L---------|--3--------------3-----|
------------------------|----------------------|-----------------------|


  Q.     E  Q    Q       Q.     E  Q    Q       Q.     E  Q    Q     
-----------------3----|--2------3--L----5----|--3-------------------|
--3-------------------|----------------------|--0--------------0----|
--0------2--L----0----|--2-------------------|--0-------------------|
--0-------------------|--0------2--L----4----|--2--------------2----|
--2-------------------|----------------------|---------2--L---------|
----------------------|----------------------|----------------------|


  Q.     E  Q    E  E     Q.     E  Q    E  E     E.  S E  E  Q    E  E   
--2---------0----------|-----------------------|-------------------------|
--1---------1-------3--|--3-----------------3--|--3---0-L----------------|
--0------0--L----------|--0------2--L----0-----|-----------2--L----0-----|
-----------------------|--0--------------------|--4-----------2-------4--|
--3--------------3-----|--2--------------------|--0----------------5-----|
-----------------------|-----------------------|-------------------------|


  Q.     E  Q    Q       Q.     E  Q    E  E     Q.     E  Q    Q     
----------------------|-----------------------|----------------------|
---------1--L----3----|--------------------0--|----------------------|
--0-------------------|--0--------------2-----|--0-------------------|
--2-------------------|---------2--L----0-----|--0-------------------|
--3-------------------|--3--------------------|--2------0--L----2----|
----------------------|-----------------------|--3-------------------|


  Q.     E  Q    Q       W                  
----------------------|-------------------||
----------------------|--0----------------||
---------0--L----2----|--0----------------||
--0-------------------|--0----------------||
----------------------|-------------------||
----------------------|-------------------||




Duration Legend
---------------
W - whole
H - half
Q - quarter
E - 8th
S - 16th
T - 32nd
X - 64th
. - note dotted
|-n-|  - n-tuplets


Tablature Legend
----------------
L - tied note
Login or Register to remove this ad.

7 comments on Faraway Promise

just last week I was

just last week I was wondering what this would sound like on guitar, and now I know :D thanks for posting up another one for me to practice!

EDIT: I just redid this

EDIT: I just redid this using a capo and it makes it soooo much easier. Should be much more playable. :)

Re: Faraway Promise

do u have a PDF file of this?

Nice :P

5

Can't remember what the piece was like before you changed it, but you're right, this one is easy :P. Thanks again for the tab.

thanks

5

good work thanks for the tab :D

Thank you...

5

This is beautiful sir… "Music is a mysterious thing... Sometimes, it makes people remember things that they do not expect. Many thoughts, feelings, memories... things almost forgotten... Regardless of whether the listener desires to remember them or not...”

I literally just started

I literally just started tearing up while playing this song again. Thank you so much Kabukibear for this amazing arrangement