Aveh the Ancient Dance (Xenogears) Guitar Tab

Submitted: Oct 03, 2007 by Kabukibear (Last updated: Sep 20, 2009)

4.9
Average: 4.9 (10 votes)
Download | Listen
Game: Xenogears
Composer(s): Yasunori Mitsuda
Style: Arrangement, Fingerstyle, Natural harmonics
Series: Xeno

AutoScroll: Slow | Medium | Fast
Aveh the Ancient Dance                              
~Xenogears~
Composed by: Yasunori Mitsuda
Arranged by: Justin Lincoln

Drop D Tuning

bpm=200

      Q    E  E  E  E     Q    E  E  E  E     Q    E  E  E  E   
E||--------------------|----------------0--|-------------------|
B||---0----0-----0-----|--0----0-----0-----|--3----3--2--3--0--|
G||*----------2--------|----------2--------|-------------------|
D||*----------------2--|-------------------|-------------------|
A||--------------------|-------------------|-------------------|
D||---2----------------|--2----------------|--2----------------|


  E  E  E  E   E   E     Q    E  E  E  E     Q    E  E  E  E   
----------------------|-------------------|----------------0--|
--2-----0-------------|--0----0-----0-----|--0----0-----0-----|
-----2----------------|----------2--------|----------2--------|
-----------2p--0h--2--|----------------2--|-------------------|
----------------------|-------------------|-------------------|
--0--------0----------|--2----------------|--2----------------|


  Q    E  E  E  E     E   E  E  Q.        Q    E  E  E  E     Q    E  E  E  E   
----------------0--|--0h--2-----0------|-------------------|----------------0--|
--3----3--2--3-----|---------3---------|--0----0-----0-----|--0----0-----0-----|
-------------------|-------------------|----------2--------|----------2--------|
-------------------|-------------------|----------------2--|-------------------|
-------------------|-------------------|-------------------|-------------------|
--2----------------|--0---------2------|--2----------------|--2----------------|


  Q    E  E  E  E     E  E  E  E   E   E     Q    E  E  E  E   
-------------------|----------------------|-------------------|
--3----3--2--3--0--|--2-----0-------------|--0----0-----0-----|
-------------------|-----2----------------|----------2--------|
-------------------|-----------2p--0h--2--|----------------2--|
-------------------|----------------------|-------------------|
--2----------------|--0--------0----------|--2----------------|


  Q    E  E  E  E     Q    E  E  E  E     E   E  E  Q.      
-------------------|--0----0-----0--2--|--0h--2-----0------|
--0----0-----0--3--|----------3--------|---------3---------|
----------2--------|-------------------|-------------------|
-------------------|-------------------|-------------------|
-------------------|-------------------|-------------------|
--2----------------|--2----------------|--0---------2------|


    Q    E  E  E  E     Q    E  E  E  E     Q    E  E  E  E   
|---3----3--2--0-----|--2----2--0--------|-------------------|
|-----------------3--|-------------3--2--|--3----3--2--0-----|
|*-------------------|-------------------|----------------2--|
|*-------------------|-------------------|-------------------|
|--------------------|-------------------|--0----------------|
|---2----------------|--0----------------|-------------------|


  E  E  E  E  E  E     Q    E  E  E  E     Q    E  E  E  E   
--------------0-----|--3----3--2--0-----|--2----2--0--------|
--2-----3-----------|----------------3--|-------------3--2--|
-----2-----2-----2--|-------------------|-------------------|
--------------------|-------------------|-------------------|
--0-----------------|-------------------|-------------------|
--------------------|--2----------------|--0----------------|


  Q    E  E  E  E     E   E  E  Q.          E  E  E  E  E  E   
----------------0--|--0h--2-----0-------||-----2-----0-----2--|
--3----3--2--3-----|---------3----------||--3-----3-----3-----|
-------------------|-------------------*||--------------------|
-------------------|-------------------*||--------------------|
--0----------------|--0-----------------||--------------------|
-------------------|--------------------||--0--------0--------|


  E  E  E  E  E  E     E  E  E  E  E  E     E  E  E  E  E  E   
-----0-----------0--|-----2-----5-----2--|--0-----------------|
--3-----3--2--3-----|--3-----3-----3-----|-----3--2-----0--2--|
--------------------|--------------------|-----------2--------|
--------------------|--------------------|--------------------|
--------------------|--------------------|--------------------|
--0--------0--------|--0--------0--------|--0--------0--------|


  E  E  E  E  E  E     E  E  E  E  E  E     E  E  E  E  E  E   
-----2-----0-----2--|-----0-----------0--|-----2-----5-----2--|
--3-----3-----3-----|--3-----3--2--3-----|--3-----3-----3-----|
--------------------|--------------------|--------------------|
--------------------|--------------------|--------------------|
--------------------|--------------------|--------------------|
--0--------0--------|--0--------0--------|--0--------0--------|


  E  E  E  Q.        E  E  E  E  E  E     E  E  E  E  E  E   
--0---------------|-----2-----0-----2--|-----0-----------0--|
-----3--2--3------|--3-----3-----3-----|--3-----3--2--3-----|
------------------|--------------------|--------------------|
------------------|--------------------|--------------------|
------------------|--------------------|--------------------|
--0--------0------|--0--------0--------|--0--------0--------|


  E  E  E  E  E  E     E  E  E  E  E  E     E  E  E  E  E  E   
-----2-----5-----2--|--0-----------------|-----2-----0-----2--|
--3-----3-----3-----|-----3--2-----0--2--|--3-----3-----3-----|
--------------------|-----------2--------|--------------------|
--------------------|--------------------|--------------------|
--------------------|--------------------|--------------------|
--0--------0--------|--0--------0--------|--0--------0--------|


                                                        D.C      NH             
  E  E  E  E  E  E     E  E  E  E  E  E     E  E  E  Q.          H.             
-----0-----------0--|-----2-----5-----2--|--0---------------|-----------------||
--3-----3--2--3-----|--3-----3-----3-----|-----3--2--3------|----7------------||
--------------------|--------------------|------------------|----7------------||
--------------------|--------------------|------------------|----7------------||
--------------------|--------------------|------------------|-----------------||
--0--------0--------|--0--------0--------|--0--------0------|-----------------||




Duration Legend
---------------
W - whole
H - half
Q - quarter
E - 8th
S - 16th
T - 32nd
X - 64th
. - note dotted
|-n-|  - n-tuplets


Tablature Legend
----------------
L - tied note
NH - natural harmonic
h - hammer on
p - pull off
D.C. - Play from the beginning
Login or Register to remove this ad.

3 comments on Aveh the Ancient Dance

This is awesome, great tab!

5

This is awesome, great tab! Thanks!

Simple yet addtictive

5

Love it. Easy to play, sounds exactly like the song!

very nice

5

very nice