Avertuneiro Antes Lance Mao (Suikoden) Guitar Tab

Submitted: Oct 02, 2007 by Kabukibear (Last updated: Nov 27, 2009)

5
Average: 5 (9 votes)
Download | Listen
Game: Suikoden
Composer(s): Miki Higashino
Style: Artificial harmonics, Fingerstyle, Transcription

This song is also called After the Battle

AutoScroll: Slow | Medium | Fast
Avertuneiro Antes Lance Mao
~Genso Suikoden Celtic Collections III~
Arranged by: Yuji Yoshino
Transcribed by: Justin Lincoln

Bpm=65
     ^                                            ^
     H        Q    Q       Q    Q    Q    Q       H        Q    Q
E||--3--------7----7----|--0----0----3----3----|-----------0----0----|
B||--0--------8----0----|--0----0----0----0----|--1--------1----1----|
G||--0------------------|--0----0----0----0----|--2--------2----2----|
D||---------------------|----------------------|--2------------------|
A||---------------------|----------------------|--0------------------|
E||--0--------0---------|--0---------0---------|--0--------0---------|

                                             bpm=70
            ^           ^
  Q    Q    H           H        Q    Q       E  E  E  E  Q    Q
--3---------2--------|--3--------7----7----|--0-----0--2--3----3----|
--0----0----0--------|--5--------8----8----|-----1------------------|
--0---------2--------|--4--------9----9----|--0-----------0---------|
------------1--------|---------------------|------------------------|
------------2--------|---------------------|--3-----------2---------|
--0------------------|--0--------0---------|------------------------|

                                                      ^
  E  E  E  S S E  E  Q       E  E  E  E  Q    Q       H.           Q
---------------0-----0----|--3-----2-----0---------|--0------------4----|
--1------------1-----1----|-----0--------0----0----|--0-----------------|
--2-----2---------0-------|-----------2------------|--1-----------------|
-----2---------------2----|-----------1------------|--2-----------------|
--0--------0-2-3----------|--------2---------------|--2-----------------|
--------------------------|--0-----------0---------|--0-----------------|

  E  S S E  E  S S S S S S E     Q    E  E  Q    E  E
------------------------------|----------0--0----------|
--0------0--2--2-------2---4--|--4----4-----0-------0--|
-----1-2-------2---1-2-2------|--4----4-----1----1-----|
-----------------2-------2----|------------------2-----|
------------------------------|------------------------|
--0------------0--------------|--0----0-----0----0-----|

  E  E  S S S S E  E  S S S S    Q    E.  S E  S S E  E
------------------------------|-----------0-0---------4--|
--0---------0-2-2-------0-2-4-|--4----4-----0------------|
--1--1--1-2--------2--2-------|--2----2--------1-2-------|
-----2-------------2----------|--------------------------|
----------------0-------------|--2-----------------------|
--0---------------------------|-------------0------0-----|

  S S S S S S S S Q    S S S S    E  S S E.  S Q    Q
--4-------0-2-4-5-5----0---0-2-|--2------2---4-4----0----|
----0-2-4----------------4-----|-------0-0---0-0----0----|
-------------------------------|-----2-------------------|
-------------------------------|-------------------------|
------------------0------------|--2----------------------|
--0----------------------------|---------------0---------|

  E.  S S S S S Q    E  E     E  S S E  E  Q.     E
--0-------------2----2-----|----------------------4--|
--2---------0-2-1----1--4--|--4------4--5--5------5--|
------2-1-2-------------5--|--5------------6---------|
---------------------------|-----4-6-------6---------|
--0-------------0----------|---------------4---------|
---------------------------|--4----------------------|

  E  S S S S S S E  E  E.  S    E  E  E  E  Q    S S S S
--4------4-5---7-5-----2-----|--------9--7--7------------|
--5--4-5-----5------2------7-|--7-----7--7--9----9-------|
-----------------------2-----|-----8---------------9-8-9-|
-----------------------------|---------------------------|
-----------------------------|---------------------------|
--0--------------2-----------|--7-----------0----0-------|

                            Rit.................................
                                           ^
  S S S S E.  S Q    E  E     Q    S S S S H           H
--------5-5---5-5----2--4--|--4----2-------2--------|--L--------|
------5---5---5-2----2-----|---------4---4-4--------|--L--------|
----6----------------------|--4--------4---2--------|--L--------|
--7------------------------|------------------------|-----------|
--0-------0----------------|--2------------2--------|--L--------|
----------------2----------|------------------------|-----------|

bpm=120
  E  E  E  E  E  E  E  E  E     E  E  E  E  E  E  E  E  E
-----------------------------|-----------------------------|
--0--------0--------2--------|--2--------2--------4--------|
-----1--------1--------1-----|-----2--------2--------2-----|
--------2--------2--------2--|--------2--------2--------2--|
-----------------------------|--0--------------------------|
--0--------------------------|-----------------------------|

                                                 Rit.......
  E  E  E  E  E  E  E  E  E     E  E  E  E  E  E  E  E  E
-----------------------------|--0--------0-----------------|
--4--------4--------5--------|-----0--------0-----0--------|
-----4--------4--------4-----|--------1--------1-----1-----|
--------4--------4--------4--|--------------------------2--|
--2--------------------------|-----------------------------|
-----------------------------|--0--------------------------|

bpm=120
  E  E  E  E  E  E  E  E  E     E  E  E  E  E  E  E  E  E
-----------------------------|-----------------------------|
--0--------0--------2--------|--2--------2--------4--------|
-----1--------1--------1-----|-----2--------2--------2-----|
--------2--------2--------2--|--------2--------2--------2--|
-----------------------------|--0--------------------------|
--0--------------------------|-----------------------------|

                                                  Rit......
  E  E  E  E  E  E  E  E  E     E  E  E  E  E  E  E  E  E
-----------------------------|--0--------0--------4--------|
--4--------4--------5--------|-----0--------0--------0-----|
-----4--------4--------4-----|--------1--------1--------1--|
--------4--------4--------4--|-----------------------------|
--2--------------------------|-----------------------------|
-----------------------------|--0--------------------------|

bpm=120
  E  E  E  E  E  E  E  E  E     E  E  E  E  E  E  E  E  E
--4--------4--------5--------|--5--------5-----------------|
-----5--------5--------5-----|--------------------7--------|
--------6--------6--------6--|-----6--------6--------6-----|
-----------------------------|--------7--------7--------7--|
--4--------------------------|-----------------------------|
-----------------------------|--5--------------------------|

  E  E  E  E  E  E  E  E  E     E  E  E  E  E  E  E  E  E
--2--------2--------4--------|--4--------4--------0--------|
-----4--------4--------4-----|-----0--------0--------0-----|
--------2--------2--------2--|--------1--------1--------1--|
-----------------------------|-----------------------------|
--2--------------------------|-----------------------------|
-----------------------------|--0--------------------------|

                                                  Rit......
  E  E  E  E  E  E  E  E  E     E  E  E  E  E  E  E  E  E
--0--------0--------2--------|--2--------2-----------------|
-----2--------2--------2-----|-----1--------1-----4--------|
--------2--------2--------2--|--------2--------2-----5-----|
-----------------------------|--------------------------4--|
--0--------------------------|--0--------------------------|
-----------------------------|-----------------------------|

bpm=120
  E  E  E  E  E  E  E  E  E     E  E  E  E  E  E  E  E  E
-----------------------------|--------------------4--------|
--4--------4--------5--------|--5--------5-----------5-----|
-----5--------5--------5-----|-----6--------6-----------6--|
--------4--------4--------4--|--------6--------6-----------|
-----------------------------|--4--------------------------|
--4--------------------------|-----------------------------|

  E  E  E  E  E  E  E  E  E     E  E  E  E  E  E  E  E  E
--4--------4--------5--------|--5--------5-----------------|
-----------------------------|--------------------7--------|
-----4--------4--------4-----|-----6--------6--------6-----|
--------6--------6--------6--|--------7--------7--------7--|
-----------------------------|-----------------------------|
--0--------------------------|--5--------------------------|

                                                  Rit......
  E  E  E  E  E  E  E  E  E     E  E  E  E  E  E  E  E  E
--------------------9--------|--7--------7--------4--------|
--7--------7-----------7-----|-----9--------9--------------|
-----8--------8-----------8--|--------9--------9-----4-----|
--------7--------7-----------|--------------------------6--|
-----------------------------|-----------------------------|
--7--------------------------|--0--------------------------|

bpm=120
  E  E  E  E  E  E  E  E  E     E  E  E  E  E  E  E  E  E
--------------------5--------|--5--------5--------4--------|
--5--------5-----------------|-----------------------2-----|
-----6--------6--------6-----|-----6--------6-----------2--|
--------7--------7--------7--|--------7--------7-----------|
--0-----------------0--------|--0-----------------0--------|
-----------------------------|-----------------------------|

  Rit..........................^             bpm=120
  E  E  E  E  E  E  E  Q       H.              E  E  E  E  E  E  E  E  E
--4--------2--------2-------|--0------------|--3--------3--------3--------|
-----4--------4--------4----|--0------------|-----0--------0--------0-----|
--------2--------2----------|--1------------|--------0--------0--------0--|
----------------------------|--2------------|-----------------------------|
--2--------2----------------|--2------------|-----------------------------|
----------------------------|--0------------|--0--------------------------|

  E  E  E  E  E  E  E  E  E     E  E  E  E  E  E  E  E  E
--7--------7--------7--------|--0--------0--------0--------|
-----0--------0--------0-----|-----1--------1--------1-----|
--------0--------0--------0--|--------0--------0--------0--|
-----------------------------|-----------------------------|
-----------------------------|--3--------------------------|
--0--------------------------|-----------------------------|

  E  E  E  E  E  E  E  E  E     E  E  E  E  E  E  E  E  E
--3--------3--------3--------|-----------------------------|
-----0--------0--------0-----|--1--------1--------1--------|
--------0--------0--------0--|-----2--------2--------2-----|
-----------------------------|--------2--------2--------2--|
-----------------------------|--0--------------------------|
--3--------------------------|-----------------------------|

  E  E  E  E  E  E  E  E  E     E  E  E  E  E  E  E  E  E
--0--------0--------0--------|--3--------3--------3--------|
-----0--------0--------0-----|-----0--------0--------0-----|
--------0--------0--------0--|--------0--------0--------0--|
-----------------------------|-----------------------------|
-----------------------------|-----------------------------|
--0--------------------------|--0--------------------------|

                    Rit......   bpm=120
  E  E  E  E  E  E  E  E  E     E  E  E  E  E  E  E  E  E
--2--------2-----------------|--3--------3--------3--------|
-----0--------0-----------0--|-----5--------5--------5-----|
--------2--------2-----2-----|--------4--------4--------4--|
--------------------4--------|-----------------------------|
--2--------------------------|-----------------------------|
-----------------------------|--0--------------------------|

  E  E  E  E  E  E  E  E  E     E  E  E  E  E  E  E  E  E
--7--------7--------7--------|--0--------0--------0--------|
-----7--------7--------7-----|-----1--------1--------1-----|
--------7--------7--------7--|--------0--------0--------0--|
-----------------------------|-----------------------------|
-----------------------------|--3--------------------------|
--7--------------------------|-----------------------------|

  E  E  E  E  E  E  E  E  E     E  E  E  E  E  E  E  E  E
--3--------3--------3--------|-----------------------------|
-----0--------0--------0-----|--1--------1--------1--------|
--------0--------0--------0--|-----2--------2--------2-----|
-----------------------------|--------2--------2--------2--|
-----------------------------|--0--------------------------|
--3--------------------------|-----------------------------|

  E  E  E  E  E  E  E  E  E     E  E  E  E  E  E  E  E  E
--0--------0--------0--------|--3--------3--------3--------|
-----0--------0--------0-----|-----0--------0--------0-----|
--------0--------0--------0--|--------0--------0--------0--|
-----------------------------|-----------------------------|
-----------------------------|-----------------------------|
--0--------------------------|--0--------------------------|

                    Rit......   bpm=120
  E  E  E  E  E  E  E  E  E     E  E  E  E  E  E  E  E  E
--2--------2--------2--------|-----------------------------|
-----0--------0--------0-----|--3--------3--------3--------|
--------2--------2--------2--|-----4--------4--------4-----|
-----------------------------|--------5--------5--------5--|
--2--------------------------|-----------------------------|
-----------------------------|--3--------------------------|

  E  E  E  E  E  E  E  E  E     E  E  E  E  E  E  E  E  E
--0--------0--------0--------|--2--------2--------3--------|
-----1--------1--------1-----|-----1--------1--------1-----|
--------0--------0--------0--|--------2--------2--------2--|
-----------------------------|--0--------------------------|
--3--------------------------|-----------------------------|
-----------------------------|-----------------------------|

  E  E  E  E  E  E  E  E  E     E  E  E  E  E  E  E  E  E
--3--------3--------3--------|-----------------------------|
-----------------------------|--3--------3--------3--------|
-----4--------4--------4-----|-----4--------4--------4-----|
--------5--------5--------5--|--------5--------5--------5--|
-----------------------------|-----------------------------|
--3--------------------------|--3--------------------------|

  E  E  E  E  E  E  E  E  E     E  E  E  E  E  E  E  E  E
--0--------0--------0--------|--2--------2--------2--------|
-----1--------1--------1-----|-----1--------1--------1-----|
--------0--------0--------0--|--------2--------2--------2--|
-----------------------------|--0--------------------------|
--3--------------------------|-----------------------------|
-----------------------------|-----------------------------|

  E  E  E  E  E  E  E  E  E     E  E  E  E  E  E  E  E  E
--3--------3--------3--------|--7--------7--------7--------|
-----0--------0--------0-----|-----0--------0--------0-----|
--------0--------0--------0--|--------0--------0--------0--|
-----------------------------|-----------------------------|
-----------------------------|-----------------------------|
--3--------------------------|--3--------------------------|

  E  E  E  E  E  E  E  E  E     E  E  E  E  E  E  E  E  E
--8--------8--------8--------|--5--------5--------5--------|
-----8--------8--------8-----|-----7--------7--------7-----|
--------9--------9--------9--|--------5--------5--------5--|
-----------------------------|--0--------------------------|
-----------------------------|-----------------------------|
--8--------------------------|-----------------------------|

  E  E  E  E  E  E  E  E  E     E  E  E  E  E  E  E  E  E
--7--------7--------7--------|--3--------3--------5--------|
-----0--------0--------0-----|-----5--------5--------5-----|
--------0--------0--------0--|--------5--------5--------5--|
-----------------------------|-----------------------------|
-----------------------------|--3--------------------------|
--3--------------------------|-----------------------------|

  E  E  E  E  E  E  E  E  E     E  E  E  E  E  E  E  E  E
--5--------5--------5--------|--2--------2--------2--------|
-----5--------5--------5-----|-----1--------1--------1-----|
--------5--------5--------5--|--------2--------2--------2--|
-----------------------------|--0--------------------------|
--0--------------------------|-----------------------------|
-----------------------------|-----------------------------|

  E  E  E  E  E  E  E  E  E     E  E  E  E  E  E  E  E  E
--3--------3--------3--------|--7--------7--------7--------|
-----0--------0--------0-----|-----0--------0--------0-----|
--------0--------0--------0--|--------0--------0--------0--|
-----------------------------|-----------------------------|
-----------------------------|-----------------------------|
--3--------------------------|--3--------------------------|

  E  E  E  E  E  E  E  E  E     E  E  E  E  E     E   E   E   E
--8--------8--------8--------|--5--------5-----------12----------|
-----8--------8--------8-----|-----7--------7------------10------|
--------9--------9--------9--|--------5--------5g/11----------11-|
-----------------------------|--0--------------------------------|
-----------------------------|-----------------------------------|
--8--------------------------|-----------------------------------|

   E  E  E   E  E  E  E  E  E     E   E   E  E   E   E  E   E   E
--10--------10--------7--------|-----------------------------------|
------7---------7--------7-----|--8----------8----------8----------|
---------7---------7--------7--|-----------------------------------|
-------------------------------|-----10---------10---------10------|
-------------------------------|---------10---------10---------10--|
---7---------------------------|--8--------------------------------|

  E   E  E  E   E  E  E   E  E     E  E  E  E  E  E  E  E  E
--8---------8---------8---------|--5--------5--------5--------|
-----10--------10--------10-----|-----7--------7--------7-----|
---------9---------9---------9--|--------7--------7--------7--|
--------------------------------|--0--------------------------|
--0-----------------------------|-----------------------------|
--------------------------------|-----------------------------|

Rit...............................................
  E  E  E  E  E  E  E  E  E     E  E  E  Q.       Q.
--5--------5--------5--------|-----------3------AH3------||
-----7--------7--------7-----|--------0------------------||
--------5--------5--------5--|-----0---------------------||
--0--------------------------|---------------------------||
-----------------------------|---------------------------||
-----------------------------|--3------------------------||

Duration Legend
---------------
W - whole
H - half
Q - quarter
E - 8th
S - 16th
T - 32nd
X - 64th
. - note dotted
|-n-|  - n-tuplets

Tablature Legend
----------------
L - tied note
g - grace note
/ - slide
AH - artificial harmonic
^ - strum
Rit. - get slower and slower until next tempo change
bpm - beats per minute
Login or Register to remove this ad.

2 comments on Avertuneiro Antes Lance Mao

This is great. It reminds me

5

This is great. It reminds me of classical style.

I just... found this... OMG

I just... found this... OMG Buki Bear... i think im in love.. lol! no seriously Suikoden music is ... so powerful! thank you