Ads

Reminiscence (Suikoden 2) Guitar Tab

Submitted: Oct 14, 2007 by Kabukibear (Last updated: Sep 20, 2009)

4.67857
Average: 4.7 (28 votes)
Download | Listen
Game: Suikoden 2
Composer(s): Miki Higashino
Style: Arrangement, Fingerstyle, Natural harmonics

AutoScroll: Slow | Medium | Fast
Reminiscence                                   
~Suikoden II~
Composed by: Miki Higashino
Arranged by: Justin Lincoln



     E  E  E  E  E  E     E  E  E  E  E  E     E  E  E  E  E  E   
E||--------------------|--------------------|--------------------|
B||--------0-----0-----|--------0-----0-----|--------0-----0-----|
G||-----0-----0-----0--|-----0-----0-----0--|-----0-----0-----0--|
D||--2-----------------|--0-----------------|--------------------|
A||--------------------|--------------------|--3-----------------|
E||--------------------|--------------------|--------------------|


  E  E  E  E  E  E     E  E  E  E  E  E     E  E  E  E  E  E   
--------------------|--------------------|--------------------|
--------0-----0-----|--------------------|--------------------|
-----0-----0-----0--|--------0-----0-----|--------2-----2-----|
--------------------|-----2-----2-----2--|-----4-----4-----4--|
--2-----------------|--0-----------------|--2-----------------|
--------------------|--------------------|--------------------|


                                                                 ^             
  E  E  E  E  E  E     E  E  E  E  E  E     E  E  E  E  E  E     H.            
--------------------|--------------------|--------------------|--0------------|
--------0-----0-----|--0-----0-----0-----|--------0-----0-----|--0------------|
-----2-----2-----2--|-----2-----2-----2--|-----1-----1-----1--|--1------------|
--2-----------------|--------------------|--2-----------------|--2------------|
--------------------|--------------------|--------------------|---------------|
--------------------|--------------------|--------------------|---------------|


  E  E  E  E  E  E     E  E  E  E  E  E     E  E  E  E  E  E   
--3-----------------|--2-----3-----5-----|--7-----------8-----|
--------0-----0-----|--------------------|--------0-----------|
-----0-----0-----0--|-----0-----0-----0--|-----0-----0-----0--|
--2-----------------|--0-----------------|--------------------|
--------------------|--------------------|--3-----------------|
--------------------|--------------------|--------------------|


  E  E  E  E  E  E     E  E  E  E  E  E     E  E  E  E  E  E   
--5-----3-----2-----|--0-----2-----3-----|--2-----------------|
--------------------|--------------------|--------5-----3-----|
--------------------|--------------------|--------------------|
-----4-----4-----4--|-----2-----2-----2--|-----4-----4-----4--|
--2-----------------|--0-----------------|--2-----------------|
--------------------|--------------------|--------------------|


  E  E  E  E  E  E     E  E  E  E  E  E     E  E  E  E  E  E   
--0-----------------|--------------------|--3-----------------|
--------------------|--------------------|--------------------|
--------------------|--------------------|--------0-----0-----|
--------2-----2-----|--------2-----2-----|-----2-----2-----2--|
-----2-----2-----2--|-----2-----2-----2--|--0-----------------|
--0-----------------|--0-----------------|--------------------|


  E  E  E  E  E  E     E  E  E  E  E  E     E  E  E  E  E  E   
--2-----------------|--3-----5-----7-----|--5-----------------|
--------5-----3-----|--------------------|--------7-----------|
--------------------|-----0-----0-----0--|--------------------|
-----4-----4-----4--|--------------------|-----4-----4-----4--|
--2-----------------|--3-----------------|--5-----------5-----|
--------------------|--------------------|--------------------|


  E  E  E  E  E  E     E  E  E  E  E  E     E  E  E  E  E  E   
--0-----2-----3-----|--2-----5-----------|--0-----------------|
--------------------|-----------------3--|--------------------|
--------------------|--------------2-----|--------------------|
-----2-----2-----2--|-----4-----4--------|--------2-----2-----|
--0-----------------|--2-----------------|-----2-----2-----2--|
--------------------|--------------------|--0-----------------|


                                                    NH     NH    
  E  E  E  E  E  E     E  E  E  E  E  E     Q       Q      Q     
--------------------|--------------------|---------12------7----|
--------------------|--------------------|--0-------------------|
--------------------|-----------------0--|----------------------|
--------2-----2-----|--------2-----2-----|----------------------|
-----3-----3-----3--|-----2-----2--------|----------------------|
--0-----------------|--0-----------------|----------------------|


  E  E  E  E  E  E     E  E  E  E  E  E     E  E  E  E  E  E   
--0-----------------|--------0-----------|--0--3--------------|
--------------0-----|--0-----------------|--0-----------0--1--|
--------------------|--------------------|-----------0--------|
--------2-----------|-----4-----4-----4--|--------2-----------|
-----2-----2-----2--|--5-----------5-----|--3-----------------|
--0-----------------|--------------------|--------------------|


  E  E  E  E  E  E     E  E  E  E  E  E     E  E  E  E  E  E   
--------0-----------|--0--------------3--|--5--3--0-----------|
--------------3-----|-----------0--1-----|--------------3-----|
-----2-----2-----2--|--------2-----------|--------------------|
--------------------|-----2--------------|-----------4-----4--|
--2-----------------|--0-----------------|--2-----------2-----|
--------------------|--------------------|--------------------|


  E  E  E  E  E  E     E  E  E  E  E  E     E  E  E  E  E  E   
--0-----------------|--------------------|--3-----------3-----|
--------------------|--------------------|--------1-----------|
--------------------|--------------------|-----0-----0-----0--|
--------2-----2-----|--------2-----2-----|--------------------|
-----2-----2-----2--|-----2-----2-----2--|--0-----------------|
--0-----------------|--0-----------------|--------------------|


  E  E  E  E  E  E     E  E  E  E  E  E     E  E  E  E  E  E   
--2-----------------|--3-----5-----7-----|--5-----2-----------|
--------5-----3-----|-----0-----0-----0--|--------------------|
-----2-----2-----2--|--------------------|-----2-----2-----2--|
--------------------|--------------------|--0-----------0-----|
--2-----------------|--3-----------3-----|--------------------|
--------------------|--------------------|--------------------|


              ^       ^                                              
  E  E  E  E  Q       H        Q       H.              H.            
--0-----2-----3----|--5-------------|--0------------|--2------------|
--1-----------1----|--3--------0----|---------------|---------------|
--------------0----|----------------|---------------|---------------|
-----2-----2--2----|--4-------------|---------------|--1------------|
--0-----------0----|--2-------------|--4------------|---------------|
-------------------|----------------|---------------|---------------|


  ^                  ^                 ^                  ^               
  E  E  Q.     E     Q    Q.     E     E  E  Q.     E     Q    Q.     E   
--3--2------------|-------0------0--|------------------|-----------------|
--0-----3---------|--0--------------|--3--0------------|-------0------1--|
--0------------2--|--0--------------|--0-----0---------|--0--------------|
--2---------------|--2--------------|--4------------2--|--0--------------|
------------------|--3--------------|--2---------------|--2--------------|
------------------|-----------------|------------------|--0--------------|


  ^                  ^                 ^                 ^              
  E  E  Q.     E     Q    Q.     E     Q    Q.     E     Q    H         
------------------|--0----3------2--|-----------------|----------------|
--0------------1--|--1--------------|--0-----------1--|--0-------------|
--0--0------------|--2--------------|-----------------|----------------|
--2-----2---------|--0--------------|--1----2---------|--2----1--------|
--0---------------|-----------------|-----------------|----------------|
------------------|-----------------|--3--------------|--2-------------|


  ^                  ^                 ^                  ^                
  E  E  Q.     E     Q    Q.     E     E  E  Q.     E     Q    Q    E  E   
--3--2------------|-------0------0--|------------------|------------------|
--0-----3---------|--0--------------|--3--0------------|-------0-------1--|
--0------------2--|--0----2---------|--0-----0---------|--0---------0-----|
--2---------------|--2----4---------|--4------------2--|--0----4----------|
------------------|--3--------------|--2---------------|--2----5----------|
------------------|-----------------|------------------|--0---------------|


  ^                  ^                 ^                  ^             
  E  E  Q.     E     Q    Q    Q       H        E  S S    H.            
------------------|--0----3----2----|--2--------L--3-2-|--0------------|
--0------------1--|--0--------------|------------------|---------------|
--0--0------------|------------2----|--2--------L------|--0------------|
--2-----2---------|--4--------------|------------------|---------------|
--0---------------|--2---------2----|--3--------L------|--3------------|
------------------|-----------------|------------------|---------------|


  ^                  ^                ^              
  H        E  S S    H        Q       H.             
--2--------L--3-2-|--0-------------|--0------------||
------------------|-----------3----|--0------------||
--2--------L------|--0-------------|--1------------||
------------------|----------------|--2------------||
--3--------L------|--3-------------|--2------------||
------------------|----------------|--0------------||




Duration Legend
---------------
W - whole
H - half
Q - quarter
E - 8th
S - 16th
T - 32nd
X - 64th
. - note dotted
|-n-|  - n-tuplets


Tablature Legend
----------------
L - tied note
NH - natural harmonic
^ - brush up
Login or Register to remove this ad.

10 comments on Reminiscence

Awesome song, awesome tab.

Awesome song, awesome tab.

lol drop d...oh wait.

lol drop d...oh wait. j/k

Nicely done. I have to say this is my favorite arrangment from you since Valentina.

How do I do 7e and 3A at the

How do I do 7e and 3A at the same time?

It's possible. You just

It's possible. You just gotta stretch out those fingers.

Damn, how come i can only

Damn, how come i can only get a natural harmonic on the twelfth fret? Any ideas? The sound just doesn't resonate in any other place.

Other than that, this tab is awesome, and rather simple to play, mind all those streeeeeeeeeeeeeeeeeeeetches

make Reminiscence song the

make Reminiscence song the one from chrono cross though

that's good

that's good

Amazing

5

Wow, this song sounds amazing ^_^

Awesome tab! I've learned up

5

Awesome tab! I've learned up to this part: (Right about when you go into the strumming part)
--5-------------
--3--------0----
----------------
--4-------------
--2-------------
----------------

^^: such a awkward fingering, it's a bit daunting to get my fingers to transition from the chord before it. But, up until that part, I can play it! It sounds amazing, and lots of fun, haha

Give this a go

Absolutely love the tab, Very well done.

Not sure if your interested but put your capo on the 1st fret and play this. I did it and it sounds so much more like the original haha

Just personal preference, but give it a go :D