Ads

Beautiful Morning (Suikoden 2) Guitar Tab

Submitted: Jun 10, 2008 by Krimson (Last updated: Oct 18, 2009)

5
Average: 5 (1 vote)
Download | Listen
Game: Suikoden 2
Composer(s): Miki Higashino
Style: Transcription

AutoScroll: Slow | Medium | Fast
My favorite piece from Suikoden II.  Enjoy!

Intro

e||----12----12-----12-------12----------------
B||-12----14-----12----14-14-------------------
G||--------------------------------------------
D||--------------------------------------------
A||--------------------------------------------
E||--------------------------------------------   Repeat 3x

End of Intro

e||-17-16-14-12--11-12-------------------------
B||--------------------------------------------
G||--------------------------------------------
D||--------------------------------------------
A||--------------------------------------------
E||--------------------------------------------

First part

e||---------------9-------------12-11-12----------------------------
B||-9-10-12-12------12-10-12--------------12-10-12--9---10--9-------
G||------------9--------------------------------------9-------9-11--
D||-----------------------------------------------------------------
A||-----------------------------------------------------------------
E||-----------------------------------------------------------------

e||---------------9-------------12-11-12----------------------------
B||-9-10-12-12------12-10-12--------------12-10-12--9---10--9-------
G||------------9--------------------------------------9-------11-9--
D||-----------------------------------------------------------------
A||-----------------------------------------------------------------
E||-----------------------------------------------------------------

Second Part

e||-----------------------------------------------------------------
B||-------8-7------------8-7-------------12-10----------------------
G||-9-9-9-----7----9-9-9--------12-12-12-------11--7-9-9-9-7----7---
D||----------------------------------------------------------10-----
A||-----------------------------------------------------------------
E||-----------------------------------------------------------------

e||-----------------------------------------------------------------
B||----------11-10--------------------------------------------------
G||-12-12-12-------10-------------12--------------------------------
D||-------------------12-13-12-13----15-----------------------------
A||-----------------------------------------------------------------
E||-----------------------------------------------------------------

e||-----------------------------------------------------------------
B||-------------11-10-----10-11-11-11-10-11--13---------------------
G||----12-12-12-------10--------------------------------------------
D||-12--------------------------------------------------------------
A||-----------------------------------------------------------------
E||-----------------------------------------------------------------

Third Part (like First Part, but higher)

e||----------------12-----------15-14-15----------------------------
B||-12-13-15-15-------15-13-15-----------15-13-15--12----13-12------
G||-------------12------------------------------------12-------12-14
D||-----------------------------------------------------------------
A||-----------------------------------------------------------------
E||-----------------------------------------------------------------

e||----------------12-----------15-14-15----------------------------
B||-12-13-15-15-------15-13-15-----------15-13-15--12----13-12------
G||-------------12------------------------------------12-------14-12
D||-----------------------------------------------------------------
A||-----------------------------------------------------------------
E||-----------------------------------------------------------------

e||----------------12-----------15-14-15----------------------------
B||-12-13-15-15-------15-13-15-----------15-13-15--12----13-12------
G||-------------12------------------------------------12-------12-14
D||-----------------------------------------------------------------
A||-----------------------------------------------------------------
E||-----------------------------------------------------------------

(In case you want to play the three notes that pop up here)

e||-15-14---
B||-------15
G||---------
D||---------
A||---------
E||---------

e||----------------12-----------15-14-15----------------------------
B||-12-13-15-15-------15-13-15-----------15-13-15--12----13-12------
G||-------------12------------------------------------12-------14-12
D||-----------------------------------------------------------------
A||-----------------------------------------------------------------
E||-----------------------------------------------------------------
Login or Register to remove this ad.

1 comment on Beautiful Morning

Great tab

5

Great tab, sounds exactly like it and is easy to play after a bit of practice! :)