Ads

Opening of a Journey (SaGa Frontier) Guitar Tab

Submitted: Oct 28, 2007 by Kabukibear (Last updated: Sep 20, 2009)

5
Average: 5 (9 votes)
Download | Listen
Game: SaGa Frontier
Composer(s): Kenji Ito
Style: Arrangement, Fingerstyle

AutoScroll: Slow | Medium | Fast
Opening of a Journey                               
~SaGa Frontier~
Composed by: Kenji Ito
Arranged by: Justin Lincoln

bpm=85

     E  E  E  E  E  E     E  E  E  E  E  E     E  E  E  E  E  E   
E||--2--------0--------|--------------------|--0-----------------|
B||--------0--------0--|--3--------2--------|-----------3--------|
G||-----0--------0-----|--------0--------0--|--------4--------4--|
D||--------------------|-----2--------2-----|-----4--------4-----|
A||--------------------|--0-----------------|--2-----------------|
E||--3-----------------|--------------------|--------------------|


  E  E  E  E  E  E     E  E  E  E  E  E     E  E  E  E  E  E   
--------------------|--2--------0--------|-----------------0--|
--2--------3--------|--------0--------0--|--3--------2--3-----|
--------2--------2--|-----0--------0-----|--------2-----------|
-----4--------4-----|--------------------|-----2--------------|
--0-----------------|--------------------|--0--------L--2--4--|
--------------------|--3-----------------|--------------------|


  E  E  E  E  E  E     E  E  E  E  E  E     E  E  E  E  E  E   
--3--------2--------|--1--------2--------|--5--------5--3--2--|
--------3--------3--|--------3--------3--|--------5-----------|
-----2--------2-----|-----2--------2-----|-----5--------------|
--0-----------------|--0-----------------|--------------------|
--------------------|--------------------|--3-----------------|
--------------------|--------------------|--------------------|


  E  E  E  E  E  E     E  E  E  E  E  E     E  E  E  E  E  E   
--0-----------0--2--|--3-----0--2--------|--3--------2--0-----|
--------0--4--------|-----0--------0--4--|-----0--3--------3--|
--------------------|--------------------|--------------------|
-----4-----------1--|--2--------1--------|--0-----------------|
--2--------L--4-----|--------------------|--------------------|
--------------------|--------------------|--------------------|

                       II----------------------------------                  
  E  E  E  E  E  E     E  E  E  Q.        E  E  E  E  E  E   
-----------------0--|--2---------------|--------------------|
--2--------2--3-----|-----------2------|--5--------3--------|
--------2-----------|--------2---------|--------2--------2--|
-----2--------------|-----4------------|-----4--------4-----|
--0--------L--------|------------------|--2-----------------|
-----------------3--|--2---------------|--------------------|


                       ^              
  Q.     E  E  E       H.             
---------------0---||--2------------||
--2---------3------||--3------------||
------------------*||--2------------||
------------------*||--0------------||
--L------0---------||---------------||
-------------------||---------------||




Duration Legend
---------------
W - whole
H - half
Q - quarter
E - 8th
S - 16th
T - 32nd
X - 64th
. - note dotted
|-n-|  - n-tuplets


Tablature Legend
----------------
L - tied note
^ - brush up
Login or Register to remove this ad.

4 comments on Opening of a Journey

This is a beautiful

5

This is a beautiful tab.
Reminds me of when I was a kid.

me2

5

me2

great !!

5

Reminds me nothing :o) but is s a great tune & tab

Well Done!

5

Im a Saga Frontier fiend and would love it if you could tab out some other tunes from the game. Nothing too hard if possible, this one was perfect, fun and easy. Thank you.