Ads

Aya's Theme (Parasite Eve) Guitar Tab

Submitted: Oct 21, 2007 by Yamato (Last updated: Oct 21, 2007)

5
Average: 5 (2 votes)
Download | Listen
Game: Parasite Eve
Composer(s): Yoko Shimomura
Style: 2 or more instruments, Transcription

AutoScroll: Slow | Medium | Fast

Guitar 1

      E   E   E   E   E   E   E   E      E   E   E   E   E   E   E   E   
E||--21------17--24----------22------|--21----------24----------22------|
B||------19--------------22----------|----------22----------22----------|
G||------------------23----------23--|------23----------23----------23--|
D||----------------------------------|----------------------------------|
A||----------------------------------|----------------------------------|
E||----------------------------------|----------------------------------|


   E   E   E   E   E   E   E   E      E   E   E   E   E   E   E   E   
--------------22----------21------|------24----------22------21------|
--24------20----------20----------|--20----------20------------------|
------21----------21----------21--|----------21----------21------21--|
----------------------------------|----------------------------------|
----------------------------------|----------------------------------|
----------------------------------|----------------------------------|


   E   E   E   E   E   E   E   E      E   E   E   E   E   E   E   E   
--21------17--24----------22------|--21----------24----------22------|
------19--------------22----------|----------22----------22----------|
------------------23----------23--|------23----------23----------23--|
----------------------------------|----------------------------------|
----------------------------------|----------------------------------|
----------------------------------|----------------------------------|


   E   E   E   E   E   E   E   E      E   E   E   E   E   E   E   E   
--26----------24----------22------|------21------19--22------19------|
----------24----------24----------|--24------20----------20------20--|
------24----------24----------24--|----------------------------------|
----------------------------------|----------------------------------|
----------------------------------|----------------------------------|
----------------------------------|----------------------------------|


   E   E   E   E   E   E   E   E      E   E   E   E   E   E   E   E   
--21------17--24----------22------|--21----------24----------22------|
------19--------------22----------|----------22----------22----------|
------------------23----------23--|------23----------23----------23--|
----------------------------------|----------------------------------|
----------------------------------|----------------------------------|
----------------------------------|----------------------------------|


   E   E   E   E   E   E   E   E      E   E   E   E   E   E   E   E   
--------------22----------21------|------24----------22------21------|
--24------20----------20----------|--20----------20------------------|
------21----------21----------21--|----------21----------21------21--|
----------------------------------|----------------------------------|
----------------------------------|----------------------------------|
----------------------------------|----------------------------------|


   E   E   E   E   E   E   E   E      E   E   E   E   E   E   E   E   
--21------17--24----------22------|--21----------24----------22------|
------19--------------22----------|----------22----------22----------|
------------------23----------23--|------23----------23----------23--|
----------------------------------|----------------------------------|
----------------------------------|----------------------------------|
----------------------------------|----------------------------------|


   E   E   E   E   E   E   E   E      E   E   E   E   E   E   E   E   
--26----------24----------22------|------21------19--22------19------|
----------24----------24----------|--24------20----------20------20--|
------24----------24----------24--|----------------------------------|
----------------------------------|----------------------------------|
----------------------------------|----------------------------------|
----------------------------------|----------------------------------|


   E   E   E   E   E   E   E   E      E   E   E   E   E   E   E   E   
--21------17--24----------22------|--21----------24----------22------|
------19--------------22----------|----------22----------22----------|
------------------23----------23--|------23----------23----------23--|
----------------------------------|----------------------------------|
----------------------------------|----------------------------------|
----------------------------------|----------------------------------|


   E   E   E   E   E   E   E   E      E   E   E   E   E   E   E   E   
--------------22----------21------|------24----------22------21------|
--24------20----------20----------|--20----------20------------------|
------21----------21----------21--|----------21----------21------21--|
----------------------------------|----------------------------------|
----------------------------------|----------------------------------|
----------------------------------|----------------------------------|


   E   E   E   E   E   E   E   E      E   E   E   E   E   E   E   E   
--21------17--24----------22------|--21----------24----------22------|
------19--------------22----------|----------22----------22----------|
------------------23----------23--|------23----------23----------23--|
----------------------------------|----------------------------------|
----------------------------------|----------------------------------|
----------------------------------|----------------------------------|


   E   E   E   E   E   E   E   E      E   E   E   E   E   E   E   E   
--26----------24----------22------|------21------19--22------19------|
----------24----------24----------|--24------20----------20------20--|
------24----------24----------24--|----------------------------------|
----------------------------------|----------------------------------|
----------------------------------|----------------------------------|
----------------------------------|----------------------------------|


   E   E   E   E   E   E   E   E      E   E   E   E   E   E   E   E   
--21------17--24----------22------|--21----------24----------22------|
------19--------------22----------|----------22----------22----------|
------------------23----------23--|------23----------23----------23--|
----------------------------------|----------------------------------|
----------------------------------|----------------------------------|
----------------------------------|----------------------------------|


   E   E   E   E   E   E   E   E      E   E   E   E   E   E   E   E   
--------------22----------21------|------24----------22------21------|
--24------20----------20----------|--20----------20------------------|
------21----------21----------21--|----------21----------21------21--|
----------------------------------|----------------------------------|
----------------------------------|----------------------------------|
----------------------------------|----------------------------------|


   E   E   E   E   E   E   E   E      E   E   E   E   E   E   E   E   
--21------17--24----------22------|--21----------24----------22------|
------19--------------22----------|----------22----------22----------|
------------------23----------23--|------23----------23----------23--|
----------------------------------|----------------------------------|
----------------------------------|----------------------------------|
----------------------------------|----------------------------------|


   E   E   E   E   E   E   E   E      E   E   E   E   E   E   E   E   
--26----------24----------22------|------21------19--22------19------|
----------24----------24----------|--24------20----------20------20--|
------24----------24----------24--|----------------------------------|
----------------------------------|----------------------------------|
----------------------------------|----------------------------------|
----------------------------------|----------------------------------|


   E   E   E   E   E   E   E   E      E   E   E   E   E   E   E   E   
--21------17--24----------22------|--21----------24----------22------|
------19--------------22----------|----------22----------22----------|
------------------23----------23--|------23----------23----------23--|
----------------------------------|----------------------------------|
----------------------------------|----------------------------------|
----------------------------------|----------------------------------|


   E   E   E   E   E   E   E   E      E   E   E   E   E   E   E   E   
--------------22----------21------|------24----------22------21------|
--24------20----------20----------|--20----------20------------------|
------21----------21----------21--|----------21----------21------21--|
----------------------------------|----------------------------------|
----------------------------------|----------------------------------|
----------------------------------|----------------------------------|


   E   E   E   E   E   E   E   E      E   E   E   E   E   E   E   E   
--21------17--24----------22------|--21----------24----------22------|
------19--------------22----------|----------22----------22----------|
------------------23----------23--|------23----------23----------23--|
----------------------------------|----------------------------------|
----------------------------------|----------------------------------|
----------------------------------|----------------------------------|


   E   E   E   E   E   E   E   E      E   E   E   E   E   E   E   E   
--26----------24----------22------|------21------19--22------19------|
----------24----------24----------|--24------20----------20------20--|
------24----------24----------24--|----------------------------------|
----------------------------------|----------------------------------|
----------------------------------|----------------------------------|
----------------------------------|----------------------------------|


   E   E   E   E   E   E   E   E      E   E   E   E   E   E   E   E   
--21------17--24----------22------|--21----------24----------22------|
------19--------------22----------|----------22----------22----------|
------------------23----------23--|------23----------23----------23--|
----------------------------------|----------------------------------|
----------------------------------|----------------------------------|
----------------------------------|----------------------------------|


   E   E   E   E   E   E   E   E      E   E   E   E   E   E   E   E   
--------------22----------21------|------24----------22------21------|
--24------20----------20----------|--20----------20------------------|
------21----------21----------21--|----------21----------21------21--|
----------------------------------|----------------------------------|
----------------------------------|----------------------------------|
----------------------------------|----------------------------------|


   E   E   E   E   E   E   E   E      E   E   E   E   E   E   E   E   
--21------17--24----------22------|--21----------24----------22------|
------19--------------22----------|----------22----------22----------|
------------------23----------23--|------23----------23----------23--|
----------------------------------|----------------------------------|
----------------------------------|----------------------------------|
----------------------------------|----------------------------------|


   E   E   E   E   E   E   E   E      E   E   E   E   E   E   E   E   
--26----------24----------22------|------21------19--22------19------|
----------24----------24----------|--24------20----------20------20--|
------24----------24----------24--|----------------------------------|
----------------------------------|----------------------------------|
----------------------------------|----------------------------------|
----------------------------------|----------------------------------|


   E   E   E   E   E   E   E   E      E   E   E   E   E   E   E   E   
--21------17--24----------22------|--21----------24----------22------|
------19--------------22----------|----------22----------22----------|
------------------23----------23--|------23----------23----------23--|
----------------------------------|----------------------------------|
----------------------------------|----------------------------------|
----------------------------------|----------------------------------|


   E   E   E   E   E   E   E   E      E   E   E   E   E   E   E   E   
--------------22----------21------|------24----------22------21------|
--24------20----------20----------|--20----------20------------------|
------21----------21----------21--|----------21----------21------21--|
----------------------------------|----------------------------------|
----------------------------------|----------------------------------|
----------------------------------|----------------------------------|


   E   E   E   E   E   E   E   E      E   E   E   E   E   E   E   E   
--21------17--24----------22------|--21----------24----------22------|
------19--------------22----------|----------22----------22----------|
------------------23----------23--|------23----------23----------23--|
----------------------------------|----------------------------------|
----------------------------------|----------------------------------|
----------------------------------|----------------------------------|


   E   E   E   E   E   E   E   E      E   E   E   E   E   E   E   E          
--26----------24----------22------|------21------19--22------19------|-----||
----------24----------24----------|--24------20----------20------20--|-----||
------24----------24----------24--|----------------------------------|-----||
----------------------------------|----------------------------------|-----||
----------------------------------|----------------------------------|-----||
----------------------------------|----------------------------------|-----||




Duration Legend
---------------
W - whole
H - half
Q - quarter
E - 8th
S - 16th
T - 32nd
X - 64th
. - note dotted
|-n-|  - n-tuplets

Guitar 2

 
     W                   W                   W                 
E||-------------------|-------------------|-------------------|
B||-------------------|-------------------|-------------------|
G||-------------------|-------------------|-------------------|
D||-------------------|-------------------|-------------------|
A||-------------------|-------------------|-------------------|
E||-------------------|-------------------|-------------------|


  W                   W                   W                   W                 
-------------------|-------------------|-------------------|-------------------|
-------------------|-------------------|-------------------|-------------------|
-------------------|-------------------|-------------------|-------------------|
-------------------|-------------------|-------------------|-------------------|
-------------------|-------------------|-------------------|-------------------|
-------------------|-------------------|-------------------|-------------------|


  W                   E  E  E  E  E  E  E  E     E  E  E  E  E  E  E  E   
-------------------|--------------------4-----|--5--4--2--9--7--5--4--2--|
-------------------|--------------7-----------|--------------------------|
-------------------|-----------6-----6-----6--|--------------------------|
-------------------|--4--6--7-----------------|--------------------------|
-------------------|--------------------------|--------------------------|
-------------------|--------------------------|--------------------------|


  E  E  E  E  E  E  E  E     E  E  E  E  E  E  E  E   
--------------0-----2-----|--3--2--0--7--5--3--2--0--|
-----------0-----0-----0--|--------------------------|
--------0-----------------|--------------------------|
--2--4--------------------|--------------------------|
--------------------------|--------------------------|
--------------------------|--------------------------|


  E  E  E  E  E  E  E  E     E  E  E  E  E  E  E  E   
--------------2-----4-----|--5--4--2--9--7--5--4--2--|
-----------2-----2-----2--|--------------------------|
-----1--2-----------------|--------------------------|
--4-----------------------|--------------------------|
--------------------------|--------------------------|
--------------------------|--------------------------|


  E  E  E  E   E  E  E   E      E  E  E  E  E  E  E  E   
--3--5--7--9--10--9--7--12--|--10--9--7--5--3--2--0--7--|
----------------------------|---------------------------|
----------------------------|---------------------------|
----------------------------|---------------------------|
----------------------------|---------------------------|
----------------------------|---------------------------|


  E  E  E  E  E  E  E  E     E  E  E  E  E  E  E  E   
--------------------4-----|--5--4--2--9--7--5--4--2--|
--------------7-----------|--------------------------|
-----------6-----6-----6--|--------------------------|
--4--6--7-----------------|--------------------------|
--------------------------|--------------------------|
--------------------------|--------------------------|


  E  E  E  E  E  E  E  E     E  E  E  E  E  E  E  E   
--------------0-----2-----|--3--2--0--7--5--3--2--0--|
-----------0-----0-----0--|--------------------------|
--------0-----------------|--------------------------|
--2--4--------------------|--------------------------|
--------------------------|--------------------------|
--------------------------|--------------------------|


  E  E  E  E  E  E  E  E     E  E  E  E  E  E  E  E   
--------------2-----4-----|--5--4--2--9--7--5--4--2--|
-----------2-----2-----2--|--------------------------|
-----1--2-----------------|--------------------------|
--4-----------------------|--------------------------|
--------------------------|--------------------------|
--------------------------|--------------------------|


  E  E  E  E   E  E  E   E      E  E  E  E  E  E  E  E   
--3--5--7--9--10--9--7--12--|--10--9--7--5--3--2--0--7--|
----------------------------|---------------------------|
----------------------------|---------------------------|
----------------------------|---------------------------|
----------------------------|---------------------------|
----------------------------|---------------------------|


  E  E  E  E  E  E  E  E     E  E  E  E  E  E  E  E   
--------------------4-----|--5--4--2--9--7--5--4--2--|
--------------7-----------|--------------------------|
-----------6-----6-----6--|--------------------------|
--4--6--7-----------------|--------------------------|
--------------------------|--------------------------|
--------------------------|--------------------------|


  E  E  E  E  E  E  E  E     E  E  E  E  E  E  E  E   
--------------0-----2-----|--3--2--0--7--5--3--2--0--|
-----------0-----0-----0--|--------------------------|
--------0-----------------|--------------------------|
--2--4--------------------|--------------------------|
--------------------------|--------------------------|
--------------------------|--------------------------|


  E  E  E  E  E  E  E  E     E  E  E  E  E  E  E  E   
--------------2-----4-----|--5--4--2--9--7--5--4--2--|
-----------2-----2-----2--|--------------------------|
-----1--2-----------------|--------------------------|
--4-----------------------|--------------------------|
--------------------------|--------------------------|
--------------------------|--------------------------|


  E  E  E  E   E  E  E   E      E  E  E  E  E  E  E  E   
--3--5--7--9--10--9--7--12--|--10--9--7--5--3--2--0--7--|
----------------------------|---------------------------|
----------------------------|---------------------------|
----------------------------|---------------------------|
----------------------------|---------------------------|
----------------------------|---------------------------|


  E  E  E  E  E  E  E  E     E  E  E  E  E  E  E  E   
--------------------4-----|--5--4--2--9--7--5--4--2--|
--------------7-----------|--------------------------|
-----------6-----6-----6--|--------------------------|
--4--6--7-----------------|--------------------------|
--------------------------|--------------------------|
--------------------------|--------------------------|


  E  E  E  E  E  E  E  E     E  E  E  E  E  E  E  E   
--------------0-----2-----|--3--2--0--7--5--3--2--0--|
-----------0-----0-----0--|--------------------------|
--------0-----------------|--------------------------|
--2--4--------------------|--------------------------|
--------------------------|--------------------------|
--------------------------|--------------------------|


  E  E  E  E  E  E  E  E     E  E  E  E  E  E  E  E   
--------------2-----4-----|--5--4--2--9--7--5--4--2--|
-----------2-----2-----2--|--------------------------|
-----1--2-----------------|--------------------------|
--4-----------------------|--------------------------|
--------------------------|--------------------------|
--------------------------|--------------------------|


  E  E  E  E   E  E  E   E      E  E  E  E  E  E  E  E   
--3--5--7--9--10--9--7--12--|--10--9--7--5--3--2--0--7--|
----------------------------|---------------------------|
----------------------------|---------------------------|
----------------------------|---------------------------|
----------------------------|---------------------------|
----------------------------|---------------------------|


  E  E  E  E  E  E  E  E     E  E  E  E  E  E  E  E   
--------------------4-----|--5--4--2--9--7--5--4--2--|
--------------7-----------|--------------------------|
-----------6-----6-----6--|--------------------------|
--4--6--7-----------------|--------------------------|
--------------------------|--------------------------|
--------------------------|--------------------------|


  E  E  E  E  E  E  E  E     E  E  E  E  E  E  E  E   
--------------0-----2-----|--3--2--0--7--5--3--2--0--|
-----------0-----0-----0--|--------------------------|
--------0-----------------|--------------------------|
--2--4--------------------|--------------------------|
--------------------------|--------------------------|
--------------------------|--------------------------|


  E  E  E  E  E  E  E  E     E  E  E  E  E  E  E  E   
--------------2-----4-----|--5--4--2--9--7--5--4--2--|
-----------2-----2-----2--|--------------------------|
-----1--2-----------------|--------------------------|
--4-----------------------|--------------------------|
--------------------------|--------------------------|
--------------------------|--------------------------|


  E  E  E  E   E  E  E   E      E  E  E  E  E  E  E  E   
--3--5--7--9--10--9--7--12--|--10--9--7--5--3--2--0--7--|
----------------------------|---------------------------|
----------------------------|---------------------------|
----------------------------|---------------------------|
----------------------------|---------------------------|
----------------------------|---------------------------|


  E  E  E  E  E  E  E  E     E  E  E  E  E  E  E  E   
--------------------4-----|--5--4--2--9--7--5--4--2--|
--------------7-----------|--------------------------|
-----------6-----6-----6--|--------------------------|
--4--6--7-----------------|--------------------------|
--------------------------|--------------------------|
--------------------------|--------------------------|


  E  E  E  E  E  E  E  E     E  E  E  E  E  E  E  E   
--------------0-----2-----|--3--2--0--7--5--3--2--0--|
-----------0-----0-----0--|--------------------------|
--------0-----------------|--------------------------|
--2--4--------------------|--------------------------|
--------------------------|--------------------------|
--------------------------|--------------------------|


  E  E  E  E  E  E  E  E     E  E  E  E  E  E  E  E   
--------------2-----4-----|--5--4--2--9--7--5--4--2--|
-----------2-----2-----2--|--------------------------|
-----1--2-----------------|--------------------------|
--4-----------------------|--------------------------|
--------------------------|--------------------------|
--------------------------|--------------------------|


  E  E  E  E   E  E  E   E      E  E  E  E  E  E  E  E          
--3--5--7--9--10--9--7--12--|--10--9--7--5--3--2--0--7--|-----||
----------------------------|---------------------------|-----||
----------------------------|---------------------------|-----||
----------------------------|---------------------------|-----||
----------------------------|---------------------------|-----||
----------------------------|---------------------------|-----||




Duration Legend
---------------
W - whole
H - half
Q - quarter
E - 8th
S - 16th
T - 32nd
X - 64th
. - note dotted
|-n-|  - n-tuplets

Guitar 3

     W                   W                   W                 
E||-------------------|-------------------|-------------------|
B||-------------------|-------------------|-------------------|
G||-------------------|-------------------|-------------------|
D||-------------------|-------------------|-------------------|
A||-------------------|-------------------|-------------------|
E||-------------------|-------------------|-------------------|


  W                   W                   W                   W                 
-------------------|-------------------|-------------------|-------------------|
-------------------|-------------------|-------------------|-------------------|
-------------------|-------------------|-------------------|-------------------|
-------------------|-------------------|-------------------|-------------------|
-------------------|-------------------|-------------------|-------------------|
-------------------|-------------------|-------------------|-------------------|


  W                   W                   W                   W                 
-------------------|-------------------|-------------------|-------------------|
-------------------|-------------------|-------------------|-------------------|
-------------------|-------------------|-------------------|-------------------|
-------------------|-------------------|-------------------|-------------------|
-------------------|-------------------|-------------------|-------------------|
-------------------|-------------------|-------------------|-------------------|


  W                   W                   W                   W                 
-------------------|-------------------|-------------------|-------------------|
-------------------|-------------------|-------------------|-------------------|
-------------------|-------------------|-------------------|-------------------|
-------------------|-------------------|-------------------|-------------------|
-------------------|-------------------|-------------------|-------------------|
-------------------|-------------------|-------------------|-------------------|


  W                   E  E  E  E  E  E  E  E     E  E  E  E  E  E  E  E   
-------------------|--------------------------|--------------------------|
-------------------|--------------------------|--------------------------|
-------------------|--------------------------|--------------------------|
-------------------|--------------------------|--------------------------|
-------------------|--------0-----2-----4-----|--------0-----2-----4-----|
-------------------|-----2-----2-----2-----2--|-----2-----2-----2-----2--|


  E  E  E  E  E  E  E  E     E  E  E  E  E  E  E  E   
--------------------------|--------------------------|
--------------------------|--------------------------|
--------------------------|--------------------------|
--------------------------|--------------------------|
--------------0-----2-----|--------------0-----2-----|
-----0--3--0-----0-----0--|-----0--3--0-----0-----0--|


  E  E  E  E  E  E  E  E     E  E  E  E  E  E  E  E   
--------------------------|--------------------------|
--------------------------|--------------------------|
--------------------------|--------------------------|
--------------------------|--------------------------|
--------0-----2-----4-----|--------0-----2-----4-----|
-----2-----2-----2-----2--|-----2-----2-----2-----2--|


  E  E  E  E  E  E  E  E     E  E  E  E  E  E  E  E   
--------------------------|--------------------------|
--------------------------|--------------------------|
--------------------------|--------------------------|
--------------2-----4-----|--------0-----2-----4-----|
--------2-----------------|-----2-----2-----2-----2--|
-----3-----3-----3-----3--|--------------------------|


  E  E  E  E  E  E  E  E     E  E  E  E  E  E  E  E   
--------------------------|--------------------------|
--------------------------|--------------------------|
--------------------------|--------------------------|
--------------------------|--------------------------|
--------0-----2-----4-----|--------0-----2-----4-----|
-----2-----2-----2-----2--|-----2-----2-----2-----2--|


  E  E  E  E  E  E  E  E     E  E  E  E  E  E  E  E   
--------------------------|--------------------------|
--------------------------|--------------------------|
--------------------------|--------------------------|
--------------------------|--------------------------|
--------------0-----2-----|--------------0-----2-----|
-----0--3--0-----0-----0--|-----0--3--0-----0-----0--|


  E  E  E  E  E  E  E  E     E  E  E  E  E  E  E  E   
--------------------------|--------------------------|
--------------------------|--------------------------|
--------------------------|--------------------------|
--------------------------|--------------------------|
--------0-----2-----4-----|--------0-----2-----4-----|
-----2-----2-----2-----2--|-----2-----2-----2-----2--|


  E  E  E  E  E  E  E  E     E  E  E  E  E  E  E  E   
--------------------------|--------------------------|
--------------------------|--------------------------|
--------------------------|--------------------------|
--------------2-----4-----|--------0-----2-----4-----|
--------2-----------------|-----2-----2-----2-----2--|
-----3-----3-----3-----3--|--------------------------|


  E  E  E  E  E  E  E  E     E  E  E  E  E  E  E  E   
--------------------------|--------------------------|
--------------------------|--------------------------|
--------------------------|--------------------------|
--------------------------|--------------------------|
--------0-----2-----4-----|--------0-----2-----4-----|
-----2-----2-----2-----2--|-----2-----2-----2-----2--|


  E  E  E  E  E  E  E  E     E  E  E  E  E  E  E  E   
--------------------------|--------------------------|
--------------------------|--------------------------|
--------------------------|--------------------------|
--------------------------|--------------------------|
--------------0-----2-----|--------------0-----2-----|
-----0--3--0-----0-----0--|-----0--3--0-----0-----0--|


  E  E  E  E  E  E  E  E     E  E  E  E  E  E  E  E   
--------------------------|--------------------------|
--------------------------|--------------------------|
--------------------------|--------------------------|
--------------------------|--------------------------|
--------0-----2-----4-----|--------0-----2-----4-----|
-----2-----2-----2-----2--|-----2-----2-----2-----2--|


  E  E  E  E  E  E  E  E     E  E  E  E  E  E  E  E   
--------------------------|--------------------------|
--------------------------|--------------------------|
--------------------------|--------------------------|
--------------2-----4-----|--------0-----2-----4-----|
--------2-----------------|-----2-----2-----2-----2--|
-----3-----3-----3-----3--|--------------------------|


  E  E  E  E  E  E  E  E     E  E  E  E  E  E  E  E   
--------------------------|--------------------------|
--------------------------|--------------------------|
--------------------------|--------------------------|
--------------------------|--------------------------|
--------0-----2-----4-----|--------0-----2-----4-----|
-----2-----2-----2-----2--|-----2-----2-----2-----2--|


  E  E  E  E  E  E  E  E     E  E  E  E  E  E  E  E   
--------------------------|--------------------------|
--------------------------|--------------------------|
--------------------------|--------------------------|
--------------------------|--------------------------|
--------------0-----2-----|--------------0-----2-----|
-----0--3--0-----0-----0--|-----0--3--0-----0-----0--|


  E  E  E  E  E  E  E  E     E  E  E  E  E  E  E  E   
--------------------------|--------------------------|
--------------------------|--------------------------|
--------------------------|--------------------------|
--------------------------|--------------------------|
--------0-----2-----4-----|--------0-----2-----4-----|
-----2-----2-----2-----2--|-----2-----2-----2-----2--|


  E  E  E  E  E  E  E  E     E  E  E  E  E  E  E  E   
--------------------------|--------------------------|
--------------------------|--------------------------|
--------------------------|--------------------------|
--------------2-----4-----|--------0-----2-----4-----|
--------2-----------------|-----2-----2-----2-----2--|
-----3-----3-----3-----3--|--------------------------|


  E  E  E  E  E  E  E  E     E  E  E  E  E  E  E  E   
--------------------------|--------------------------|
--------------------------|--------------------------|
--------------------------|--------------------------|
--------------------------|--------------------------|
--------0-----2-----4-----|--------0-----2-----4-----|
-----2-----2-----2-----2--|-----2-----2-----2-----2--|


  E  E  E  E  E  E  E  E     E  E  E  E  E  E  E  E   
--------------------------|--------------------------|
--------------------------|--------------------------|
--------------------------|--------------------------|
--------------------------|--------------------------|
--------------0-----2-----|--------------0-----2-----|
-----0--3--0-----0-----0--|-----0--3--0-----0-----0--|


  E  E  E  E  E  E  E  E     E  E  E  E  E  E  E  E   
--------------------------|--------------------------|
--------------------------|--------------------------|
--------------------------|--------------------------|
--------------------------|--------------------------|
--------0-----2-----4-----|--------0-----2-----4-----|
-----2-----2-----2-----2--|-----2-----2-----2-----2--|


  E  E  E  E  E  E  E  E     E  E  E  E  E  E  E  E          
--------------------------|--------------------------|-----||
--------------------------|--------------------------|-----||
--------------------------|--------------------------|-----||
--------------2-----4-----|--------0-----2-----4-----|-----||
--------2-----------------|-----2-----2-----2-----2--|-----||
-----3-----3-----3-----3--|--------------------------|-----||




Duration Legend
---------------
W - whole
H - half
Q - quarter
E - 8th
S - 16th
T - 32nd
X - 64th
. - note dotted
|-n-|  - n-tuplets

Guitar 4

     W                   W                   W                 
E||-------------------|-------------------|-------------------|
B||-------------------|-------------------|-------------------|
G||-------------------|-------------------|-------------------|
D||-------------------|-------------------|-------------------|
A||-------------------|-------------------|-------------------|
E||-------------------|-------------------|-------------------|


  W                   W                   W                   W                 
-------------------|-------------------|-------------------|-------------------|
-------------------|-------------------|-------------------|-------------------|
-------------------|-------------------|-------------------|-------------------|
-------------------|-------------------|-------------------|-------------------|
-------------------|-------------------|-------------------|-------------------|
-------------------|-------------------|-------------------|-------------------|


  W                   W                   W                   W                 
-------------------|-------------------|-------------------|-------------------|
-------------------|-------------------|-------------------|-------------------|
-------------------|-------------------|-------------------|-------------------|
-------------------|-------------------|-------------------|-------------------|
-------------------|-------------------|-------------------|-------------------|
-------------------|-------------------|-------------------|-------------------|


  W                   W                   W                   W                 
-------------------|-------------------|-------------------|-------------------|
-------------------|-------------------|-------------------|-------------------|
-------------------|-------------------|-------------------|-------------------|
-------------------|-------------------|-------------------|-------------------|
-------------------|-------------------|-------------------|-------------------|
-------------------|-------------------|-------------------|-------------------|


  W                   E  E  E  E  H           E  E  E  E  E  E  E  E   
-------------------|-----------------------|--------------------------|
-------------------|-----------------------|--------------------------|
-------------------|-----------------------|--------------------------|
-------------------|-----------------------|--------------------------|
-------------------|-----------------------|--------------------------|
-------------------|--3--3--3--3-----------|--------1-----------------|


  E  E  E  E  H           E  E  E  E  E  E  E  E     E  E  E  E  H         
-----------------------|--------------------------|-----------------------|
-----------------------|--------------------------|-----------------------|
-----------------------|--------------------------|-----------------------|
-----------------------|--------------------------|-----------------------|
-----------------------|--------------------------|-----------------------|
--3--3--3--3-----------|--------1-----------------|--3--3--3--3-----------|


  E  E  E  E  E  E  E  E     E  E  E  E  H           E  E  E  E  E  E  E  E   
--------------------------|-----------------------|--------------------------|
--------------------------|-----------------------|--------------------------|
--------------------------|-----------------------|--------------------------|
--------------------------|-----------------------|--------------------------|
--------------------------|-----------------------|--------------------------|
--------1-----------------|--3--3--3--3-----------|--------1-----------------|


  E  E  E  E  E  E  E  E     E  E  E  E  E  E  E  E   
--------------------------|--------------------------|
--------------------------|--------------------------|
--------------------------|--------------------------|
--------------------------|--------------------------|
--------------------------|--------------------------|
--3--3--3--3-----4--4--4--|--------1-----------------|


  E  E  E  E  E  E  E  E     E  E  E  E  E  E  E  E   
--------------------------|--------------------------|
--------------------------|--------------------------|
--------------------------|--------------------------|
--------------------------|--------------------------|
--------------------------|--------------------------|
--3--3--3--3-----4--4--4--|--------1-----------------|


  E  E  E  E  E  E  E  E     E  E  E  E  E  E  E  E   
--------------------------|--------------------------|
--------------------------|--------------------------|
--------------------------|--------------------------|
--------------------------|--------------------------|
--------------------------|--------------------------|
--3--3--3--3-----4--4--4--|--------1-----------------|


  E  E  E  E  E  E  E  E     E  E  E  E  E  E  E  E   
--------------------------|--------------------------|
--------------------------|--------------------------|
--------------------------|--------------------------|
--------------------------|--------------------------|
--------------------------|--------------------------|
--3--3--3--3-----4--4--4--|--------1-----------------|


  E  E  E  E  E  E  E  E     E  E  E  E  E  E  E  E   
--------------------------|--------------------------|
--------------------------|--------------------------|
--------------------------|--------------------------|
--------------------------|--------------------------|
--------------------------|--------------------------|
--3--3--3--3-----4--4--4--|--------1-----------------|


  E  E  E  E  E  E  E  E     E  E  E  E  E  E  E  E   
--------------------------|--------------------------|
--------------------------|--------------------------|
--------------------------|--------------------------|
--------------------------|--------------------------|
--------------------------|--------------------------|
--3--3--3--3-----4--4--4--|--------1-----------------|


  E  E  E  E  E  E  E  E     E  E  E  E  E  E  E  E   
--------------------------|--------------------------|
--------------------------|--------------------------|
--------------------------|--------------------------|
--------------------------|--------------------------|
--------------------------|--------------------------|
--3--3--3--3-----4--4--4--|--------1-----------------|


  E  E  E  E  E  E  E  E     E  E  E  E  E  E  E  E   
--------------------------|--------------------------|
--------------------------|--------------------------|
--------------------------|--------------------------|
--------------------------|--------------------------|
--------------------------|--------------------------|
--3--3--3--3-----4--4--4--|--------1-----------------|


  E  E  E  E  E  E  E  E     E  E  E  E  E  E  E  E   
--------------------------|--------------------------|
--------------------------|--------------------------|
--------------------------|--------------------------|
--------------------------|--------------------------|
--------------------------|--------------------------|
--3--3--3--3-----4--4--4--|--------1-----------------|


  E  E  E  E  E  E  E  E     E  E  E  E  E  E  E  E   
--------------------------|--------------------------|
--------------------------|--------------------------|
--------------------------|--------------------------|
--------------------------|--------------------------|
--------------------------|--------------------------|
--3--3--3--3-----4--4--4--|--------1-----------------|


  E  E  E  E  E  E  E  E     E  E  E  E  E  E  E  E   
--------------------------|--------------------------|
--------------------------|--------------------------|
--------------------------|--------------------------|
--------------------------|--------------------------|
--------------------------|--------------------------|
--3--3--3--3-----4--4--4--|--------1-----------------|


  E  E  E  E  E  E  E  E     E  E  E  E  E  E  E  E   
--------------------------|--------------------------|
--------------------------|--------------------------|
--------------------------|--------------------------|
--------------------------|--------------------------|
--------------------------|--------------------------|
--3--3--3--3-----4--4--4--|--------1-----------------|


  E  E  E  E  E  E  E  E     E  E  E  E  E  E  E  E   
--------------------------|--------------------------|
--------------------------|--------------------------|
--------------------------|--------------------------|
--------------------------|--------------------------|
--------------------------|--------------------------|
--3--3--3--3-----4--4--4--|--------1-----------------|


  E  E  E  E  E  E  E  E     E  E  E  E  E  E  E  E   
--------------------------|--------------------------|
--------------------------|--------------------------|
--------------------------|--------------------------|
--------------------------|--------------------------|
--------------------------|--------------------------|
--3--3--3--3-----4--4--4--|--------1-----------------|


  E  E  E  E  E  E  E  E     E  E  E  E  E  E  E  E   
--------------------------|--------------------------|
--------------------------|--------------------------|
--------------------------|--------------------------|
--------------------------|--------------------------|
--------------------------|--------------------------|
--3--3--3--3-----4--4--4--|--------1-----------------|


  E  E  E  E  E  E  E  E     E  E  E  E  E  E  E  E          
--------------------------|--------------------------|-----||
--------------------------|--------------------------|-----||
--------------------------|--------------------------|-----||
--------------------------|--------------------------|-----||
--------------------------|--------------------------|-----||
--3--3--3--3-----4--4--4--|--------1-----------------|-----||




Duration Legend
---------------
W - whole
H - half
Q - quarter
E - 8th
S - 16th
T - 32nd
X - 64th
. - note dotted
|-n-|  - n-tuplets

Guitar 5

     W                   W                   W                 
E||-------------------|-------------------|-------------------|
B||-------------------|-------------------|-------------------|
G||-------------------|-------------------|-------------------|
D||-------------------|-------------------|-------------------|
A||-------------------|-------------------|-------------------|
E||-------------------|-------------------|-------------------|


  W                   W                   W                   W                 
-------------------|-------------------|-------------------|-------------------|
-------------------|-------------------|-------------------|-------------------|
-------------------|-------------------|-------------------|-------------------|
-------------------|-------------------|-------------------|-------------------|
-------------------|-------------------|-------------------|-------------------|
-------------------|-------------------|-------------------|-------------------|


  W                   W                   W                   W                 
-------------------|-------------------|-------------------|-------------------|
-------------------|-------------------|-------------------|-------------------|
-------------------|-------------------|-------------------|-------------------|
-------------------|-------------------|-------------------|-------------------|
-------------------|-------------------|-------------------|-------------------|
-------------------|-------------------|-------------------|-------------------|


  W                   W                   W                   W                 
-------------------|-------------------|-------------------|-------------------|
-------------------|-------------------|-------------------|-------------------|
-------------------|-------------------|-------------------|-------------------|
-------------------|-------------------|-------------------|-------------------|
-------------------|-------------------|-------------------|-------------------|
-------------------|-------------------|-------------------|-------------------|


  W                   W                   W                   W                 
-------------------|-------------------|-------------------|-------------------|
-------------------|-------------------|-------------------|-------------------|
-------------------|-------------------|-------------------|-------------------|
-------------------|-------------------|-------------------|-------------------|
-------------------|-------------------|-------------------|-------------------|
-------------------|-------------------|-------------------|-------------------|


  W                   W                   W                   W                 
-------------------|-------------------|-------------------|-------------------|
-------------------|-------------------|-------------------|-------------------|
-------------------|-------------------|-------------------|-------------------|
-------------------|-------------------|-------------------|-------------------|
-------------------|-------------------|-------------------|-------------------|
-------------------|-------------------|-------------------|-------------------|


  W                    W                   H.           E.  S  
-------------------|--------------------|---------------------|
-------------------|--21----------------|--L------------L-----|
-------------------|--------------------|---------------------|
-------------------|--------------------|---------------------|
-------------------|--------------------|---------------------|
-------------------|--------------------|---------------------|


   W                   Q.     S S  E.  T T  E.  T T  
--19----------------|--L------L---17---L---16---L---|
--------------------|-------------------------------|
--------------------|-------------------------------|
--------------------|-------------------------------|
--------------------|-------------------------------|
--------------------|-------------------------------|


   E.  T T  E.  T T  H           H.           E.  S     Q.     S S  Q.     S S  
--14---L---16---L---17--------|--L------------L-----|--19------L---17------L---|
------------------------------|---------------------|--------------------------|
------------------------------|---------------------|--------------------------|
------------------------------|---------------------|--------------------------|
------------------------------|---------------------|--------------------------|
------------------------------|---------------------|--------------------------|


   Q.     S S  Q.     S S     W                   H.           E.  S  
--15------L---14------L---|--16----------------|--L------------L-----|
--------------------------|--------------------|---------------------|
--------------------------|--------------------|---------------------|
--------------------------|--------------------|---------------------|
--------------------------|--------------------|---------------------|
--------------------------|--------------------|---------------------|


   W                   Q.     S S  E.  T T  E.  T T  
--19----------------|--L------L---17---L---16---L---|
--------------------|-------------------------------|
--------------------|-------------------------------|
--------------------|-------------------------------|
--------------------|-------------------------------|
--------------------|-------------------------------|


   E.  T T  E.  T T  H           H.           E.  S     Q.     S S  Q.     S S  
--14---L---16---L---17--------|--L------------L-----|--19------L---17------L---|
------------------------------|---------------------|--------------------------|
------------------------------|---------------------|--------------------------|
------------------------------|---------------------|--------------------------|
------------------------------|---------------------|--------------------------|
------------------------------|---------------------|--------------------------|


   Q.     S S  Q.     S S     W                   H.           E.  S  
--15------L---14------L---|--16----------------|--L------------L-----|
--------------------------|--------------------|---------------------|
--------------------------|--------------------|---------------------|
--------------------------|--------------------|---------------------|
--------------------------|--------------------|---------------------|
--------------------------|--------------------|---------------------|


   W                   Q.     S S  E.  T T  E.  T T  
--19----------------|--L------L---17---L---16---L---|
--------------------|-------------------------------|
--------------------|-------------------------------|
--------------------|-------------------------------|
--------------------|-------------------------------|
--------------------|-------------------------------|


   E.  T T  E.  T T  H           H.           E.  S     Q.     S S  Q.     S S  
--14---L---16---L---17--------|--L------------L-----|--19------L---17------L---|
------------------------------|---------------------|--------------------------|
------------------------------|---------------------|--------------------------|
------------------------------|---------------------|--------------------------|
------------------------------|---------------------|--------------------------|
------------------------------|---------------------|--------------------------|


   Q.     S S  Q.     S S     W                   H.           E.  S  
--15------L---14------L---|--16----------------|--L------------L-----|
--------------------------|--------------------|---------------------|
--------------------------|--------------------|---------------------|
--------------------------|--------------------|---------------------|
--------------------------|--------------------|---------------------|
--------------------------|--------------------|---------------------|


   W                   Q.     S S  E.  T T  E.  T T  
--19----------------|--L------L---17---L---16---L---|
--------------------|-------------------------------|
--------------------|-------------------------------|
--------------------|-------------------------------|
--------------------|-------------------------------|
--------------------|-------------------------------|


   E.  T T  E.  T T  H           H.           E.  S     Q.     S S  Q.     S S  
--14---L---16---L---17--------|--L------------L-----|--19------L---17------L---|
------------------------------|---------------------|--------------------------|
------------------------------|---------------------|--------------------------|
------------------------------|---------------------|--------------------------|
------------------------------|---------------------|--------------------------|
------------------------------|---------------------|--------------------------|


   Q.     S S  Q.     S S        
--15------L---14------L---|----||
--------------------------|----||
--------------------------|----||
--------------------------|----||
--------------------------|----||
--------------------------|----||




Duration Legend
---------------
W - whole
H - half
Q - quarter
E - 8th
S - 16th
T - 32nd
X - 64th
. - note dotted
|-n-|  - n-tuplets
Login or Register to remove this ad.