Ads

Opening Stage X (Mega Man X5) Guitar Tab

Submitted: Dec 11, 2008 by ChelseaRare (Last updated: Dec 29, 2009)

5
Average: 5 (2 votes)
Download | Listen
Game: Mega Man X5
Composer(s): Naoya Kamisaka, Naoto Tanaka, Takuya Miyawaki
Style: Fingerstyle, Transcription
Series: Mega Man

AutoScroll: Slow | Medium | Fast
Megaman X5 - Opening Stage X
Tabbed by Chelsea Rare
Tuning: Standard

h - hammer on
~let ring
/- slide

(Figure out the strumming yourself =P)
e|---------------------------------|
B|-11-10-6-8-11-10-11-13-16-15-11--|
G|---------------------------------|
D|-8--7--3-5-8--7--8--10-13-12-8---|
A|---------------------------------|
E|---------------------------------|

e|----------------------------------------------------|
B|-------10~-10----10-12~-10h12-13~-13-15-13-12~------|
G|-10h12--------12------------------------------------|
D|----------------------------------------------------|
A|----------------------------------------------------|
E|----------------------------------------------------|


e|-------------------------------13-12------------------|
B|-------10~-10----10-12~-12h13~-------15-13-10-13-12~--|
G|-10h12--------12--------------------------------------|
D|------------------------------------------------------|
A|------------------------------------------------------|
E|------------------------------------------------------|

e|------------------------------------------------------|
B|------------------------------------------------------|
G|-----------------------17~-17-15--------------17-16~--|
D|-19-17-15-14~-14-15-17-----------18-17~-15-17---------|
A|------------------------------------------------------|
E|------------------------------------------------------|

e|--------------------------------13-----------13-15-13----------------|
B|-------13-----/13-15-----/15-16----16-15~-13----------15----/15-13~--|
G|-12h15----12~--------12~---------------------------------15----------|
D|---------------------------------------------------------------------|
A|---------------------------------------------------------------------|
E|---------------------------------------------------------------------|

e|---------------13-----13-15-16-15--------13-15-13---------------|
B|-/15h16-13~-16----13~-------------16~-13----------15----/15-13--|
G|-----------------------------------------------------15---------|
D|----------------------------------------------------------------|
A|----------------------------------------------------------------|
E|----------------------------------------------------------------|

ask me if you have questions.

Login or Register to remove this ad.

5 comments on Opening Stage X

I'm kinda surprised

that this is the first X5 tab up

Oh, there you are.

5

Yeah, for the moment, there is only 1 tabs for X5. ( I want more ... X VS Zero, good idea *O* ! )

And I thank you for this tab, it's amazing, I see your tab on youtube before you come here.

(Well, excuse my fault, I'm Belgian, so, I don't speak a perfect English xD..)

I actually did a cover

I actually did a cover of X Vs. Zero on youtube recently.

I'm probably going to make a tab of it one of these days.

Intro

Awesome tab, but I like to play the intro like this:

e|-13-12-8-10-13-12-13-15-18-17-13--|
B|-11-10-6-8--11-10-11-13-16-15-11--|
G|----------------------------------|
D|----------------------------------|
A|----------------------------------|
E|----------------------------------|
*You got the idea*
Adds a nice harmonic sound.

Awesome Tab

5

This is an awesome tab. You or someone should do Zero's theme for X5 too