Ads

Zero's Theme (Mega Man X4) Guitar Tab

Submitted: Oct 02, 2007 by archard (Last updated: Sep 18, 2009)

0
Download | Listen
Game: Mega Man X4
Composer(s): Toshihiko Horiyama
Style: 2 or more instruments, Transcription
Series: Mega Man

AutoScroll: Slow | Medium | Fast
Transcribed by Aaron Morison ([email protected])

Gtr I (E A D G B E) - 'Electric Guitar (overdriven--lead)'
Gtr II (Eb Ab Db Gb Bb Eb) - 'Electric Guitar (distorted--rhythm)'

  Q=138
 4/4
  Gtr I
  W          E. S S S S S Q  S S S S   E. S S S S S Q  S S S S
|----------|-------------------------|-------------------------|
|----------|-------------------------|-------------------------|
|----------|-1--1-1-1-1-1-1--1-1-1-1-|-3--3-3-3-3-3-3--3-3-3-3-|
|----------|-------------------------|-------------------------|
|----------|-------------------------|-------------------------|
|----------|-------------------------|-------------------------|
|
| Gtr II
| W          E. S S S S S Q  S S S S   E. S S S S S Q  S S S S
|----------|-------------------------|-------------------------|
|----------|-------------------------|-------------------------|
|----------|-------------------------|-------------------------|
|----------|-------------------------|-------------------------|
|----------|-4--4-4-4-4-4-4--4-4-4-4-|-6--6-6-6-6-6-6--6-6-6-6-|
|----------|-------------------------|-------------------------|

  E. S S S S S E. S S S S S
|---------------------------|
|-1--1-1-1-1-1-1--1-1-1-1-1-|
|---------------------------|
|---------------------------|
|---------------------------|
|---------------------------|
|
| E. S S S S S E. S S S S S
|---------------------------|
|---------------------------|
|---------------------------|
|---------------------------|
|-7--7-7-7-7-7-7--7-7-7-7-7-|
|---------------------------|

  E S S S S S S S S S S E E   H           H
|---------------------------|-------------------------|
|-1-1-1-1-1-1-1-1-1-1-1-1---|-1-----------3-----------|
|---------------------------|-------------------------|
|---------------------------|-------------------------|
|---------------------------|-------------------------|
|---------------------------|-------------------------|
|
| E S S S S S S S S S S E E   E S S S S E E S S S S E
|---------------------------|-------------------------|
|---------------------------|-------------------------|
|---------------------------|-------------------------|
|---------------------------|-------------------------|
|-7-7-7-7-7-7-7-7-7-7-7-7---|-7-7-7-7-7-7-7-7-7-7-7-7-|
|---------------------------|-9-9-9-9-9-9-9-9-9-9-9-9-|

  E.   S +E    E +H
|------------------------------|
|-4----6-(6)---8-(8)-----------|
|------------------------------|
|------------------------------|
|------------------------------|
|------------------------------|
|
| E  S S  S  S E  E  S S S S E
|------------------------------|
|------------------------------|
|------------------------------|
|------------------------------|
|-6--6-6--6--6-6--6--6-6-6-6-6-|
|-7--7-7--7--7-7--7--7-7-7-7-7-|

  H           H             Q.         S S H
|-------------------------|-8----------6-4-3-----------|
|-------------6-----------|----------------------------|
|-8-----------------------|----------------------------|
|-------------------------|----------------------------|
|-------------------------|----------------------------|
|-------------------------|----------------------------|
|
| E S S S S E E S S S S E   E  S S S S E   E S S S S E
|-------------------------|----------------------------|
|-------------------------|----------------------------|
|-------------------------|----------------------------|
|-------------------------|-6--6-6-6-6-6---6-6-6-6-6-6-|
|-7-7-7-7-7-7-7-7-7-7-7-7-|-6--6-6-6-6-6---6-6-6-6-6-6-|
|-9-9-9-9-9-9-9-9-9-9-9-9-|----------------------------|

  H           H             E.   S +E    E +H
|-------------------------|------------------------------|
|-1-----------3-----------|-3----4-(4)---6-(6)-----------|
|-------------------------|------------------------------|
|-------------------------|------------------------------|
|-------------------------|------------------------------|
|-------------------------|------------------------------|
|
| E S S S S E E S S S S E   E  S S  S  S E  E  S S S S E
|-------------------------|------------------------------|
|-------------------------|------------------------------|
|-------------------------|------------------------------|
|-------------------------|------------------------------|
|-7-7-7-7-7-7-7-7-7-7-7-7-|-6--6-6--6--6-6--6--6-6-6-6-6-|
|-9-9-9-9-9-9-9-9-9-9-9-9-|-7--7-7--7--7-7--7--7-7-7-7-7-|

  Q.         S S Q.         S S
|--------------------------------|
|-4----------6-4-3----------4-3--|
|--------------------------------|
|--------------------------------|
|--------------------------------|
|--------------------------------|
|
| E  S S S S E   E  S S S S E
|--------------------------------|
|--------------------------------|
|--------------------------------|
|--------------------------------|
|-7--7-7-7-7-7---7--7-7-7-7-7----|
|-7--7-7-7-7-7---7--7-7-7-7-7----|

   H                 H                  Q   Q    Q    Q
|-------------------------------------|-----8---10---11---|
|--1----------------------------------|-------------------|
|--------------------3----------------|-------------------|
|-------------------------------------|-------------------|
|-------------------------------------|-------------------|
|-------------------------------------|-------------------|
|
|  E  S  S  S  S  E  E  S  S  S  S  E   E E E E  E E  E E
|-------------------------------------|-------------------|
|-------------------------------------|-------------------|
|-------------------------------------|-------------------|
|-------------------------------------|-------------------|
|--9--9--9--9--9--9--9--9--9--9--9--9-|-7-0-7-0--7-0--7-0-|
|-11-11-11-11-11-11-11-11-11-11-11-11-|-9-0-9-0--9-0--9-0-|

   Q.      E  +H           Q    Q    Q    Q
|-13--------------------|---------------------|
|---------13-(13)-------|------15---16---18---|
|-----------------------|---------------------|
|-----------------------|---------------------|
|-----------------------|---------------------|
|-----------------------|---------------------|
|
|  E  E E  E   E  E E E    E E  E E  E E  E E
|-----------------------|---------------------|
|-----------------------|---------------------|
|-----------------------|---------------------|
|-----------------------|-------4----4----4---|
|--7--0-7--0---7--0-7-0-|--9-2--6-2--6-2--6-2-|
|--9--0-9--0---9--0-9-0-|-11-2----2----2----2-|

   Q.      E  +Q     Q
|-16------15-(15)---13-------|
|----------------------------|
|----------------------------|
|----------------------------|
|----------------------------|
|----------------------------|
|
|  E  E E  E   E  E  S S S S
|----------------------------|
|--------------------2-0-----|
|-----------------4----3-1---|
|--4----4------4--4------4-3-|
|--6--2-6--2---6-----------6-|
|-----2----2-----------------|

  Q      Q    Q    Q      Q.      E  +S  S E  E  E
|----------------------|---------------------------|
|-------13---15---16---|-18------17-(17)-----18-20-|
|----------------------|---------20-(20)-----------|
|----------------------|---------------------------|
|----------------------|---------------------------|
|----------------------|---------------------------|
|
| S S E  E E  E E  E E    E  E E  E   E    E  E  E
|----------------------|---------------------------|
|----------------------|---------------------------|
|----------------------|---------------------------|
|-2------2----2----2---|--2----2------2-------2----|
|-4---0--4-0--4-0--4-0-|--4--0-4--0---4----0--4--0-|
|-----0----0----0----0-|-----0----0--------0-----0-|

   W                           H         S  S  S  S  S  S  S S
|---------------------------|----------------------------------|
|-20------------------------|-20--------19-18-16-14-12-10--8-6-|
|---------------------------|--------------21-19-17-16-13-11-9-|
|---------------------------|----------------------------------|
|---------------------------|----------------------------------|
|---------------------------|----------------------------------|
|
|  Q.    S S E E S  S  S  S    S S E Q   H
|--9-----9---9-9-8--8-------|----------------------------------|
|-------12---------11-10--8-|--6-------------------------------|
|---------------------13-11-|----------------------------------|
|---------------------------|----------------------------------|
|---------------------------|----------------------------------|
|---------------------------|----------------------------------|

  Q     Q       H
|-8-------------8--------------|
|-5----------------------------|
|------------------------------|
|------------------------------|
|------------------------------|
|------------------------------|
|
| E S S S S S S E S S S S S S
|------------------------------|
|------------------------------|
|------------------------------|
|------------------------------|
|-4-4-4-4-4-4-4-4-4-4-4-4-4-4--|
|-4-4-4-4-4-4-4-4-4-4-4-4-4-4--|

  Q      E.      S  +H                 H              H
|-8-----10------11-(11)-------------|-11-------------11-------------|
|-----------------------------------|-------------------------------|
|-----------------------------------|-------------------------------|
|-----------------------------------|-------------------------------|
|-----------------------------------|-------------------------------|
|-----------------------------------|-------------------------------|
|
| E S S  S  S S  S   E  S S S S S S    E S S S S S S  E S S S S S S
|-----------------------------------|-------------------------------|
|-----------------------------------|-------------------------------|
|-----------------------------------|-------------------------------|
|-----------------------------------|-------------------------------|
|-4-4-4--4--4-4--4---4--4-4-4-4-4-4-|--4-4-4-4-4-4-4--4-4-4-4-4-4-4-|
|-4-4-4--4--4-4--4---4--4-4-4-4-4-4-|--4-4-4-4-4-4-4--4-4-4-4-4-4-4-|

   Q      E.      S  +H                 H              H
|-11-----13------15-(15)-------------|-------------------------------|
|------------------------------------|-13-------------13-------------|
|------------------------------------|-------------------------------|
|------------------------------------|-------------------------------|
|------------------------------------|-------------------------------|
|------------------------------------|-------------------------------|
|
|  E S S  S  S S  S   E  S S S S S S    E S S S S S S  E S S S S S S
|------------------------------------|-------------------------------|
|------------------------------------|-------------------------------|
|------------------------------------|-------------------------------|
|------------------------------------|-------------------------------|
|--4-4-4--4--4-4--4---4--4-4-4-4-4-4-|--4-4-4-4-4-4-4--4-4-4-4-4-4-4-|
|--4-4-4--4--4-4--4---4--4-4-4-4-4-4-|--4-4-4-4-4-4-4--4-4-4-4-4-4-4-|

   Q      E.      S  +H                 E.    S  +E     E    Q.          S  S
|------------------------------------|-------15-(15)---13---18----------16-18-|
|-13-----15------16-(16)-------------|-16-------------------------------------|
|------------------------------------|----------------------------------------|
|------------------------------------|----------------------------------------|
|------------------------------------|----------------------------------------|
|------------------------------------|----------------------------------------|
|
|  E S S  S  S S  S   E  S S S S S S    E  S  S   S  S  S S  E  S S S S  S  S
|------------------------------------|----------------------------------------|
|------------------------------------|----------------------------------------|
|------------------------------------|----------------------------------------|
|------------------------------------|----------------------------------------|
|--4-4-4--4--4-4--4---4--4-4-4-4-4-4-|--4--4--4---4--4--4-4--4--4-4-4-4--4--4-|
|--4-4-4--4--4-4--4---4--4-4-4-4-4-4-|--4--4--4---4--4--4-4--4--4-4-4-4--4--4-|

   H.                   Q        Q      S  S  S  S  S  S  S  S  S  S  S  S
|-20--------------------------|--------------------------------------------|
|-----------------------------|-20-----18-16-15-13-11-13-15-16-18-16-18-20-|
|-----------------------------|--------------------------------------------|
|-----------------------------|--------------------------------------------|
|-----------------------------|--------------------------------------------|
|-----------------------------|--------------------------------------------|
|
|  E  S S S S S S E S S S S E    E S S  S  S  S  S  E     S  S  S  S  S  S
|-----------------------------|--------------------------------------------|
|-----------------------------|--------------------------------------------|
|-----------------------------|--------------------------------------------|
|-----------------------------|--2-2-2--2--2--2--2--2-----2--2--2--2--2--2-|
|--4--4-4-4-4-4-4-4-4-4-4-----|--4-4-4--4--4--4--4--4-----4--4--4--4--4--4-|
|--4--4-4-4-4-4-4-4-4-4-4-----|--------------------------------------------|

   S  S  S  S  S  S  S  S  S  S  S  S  S  S  S  S
|-------20-18-16-18-16-15-13-15-------------------|
|-21-23----------------------18-17----15-16-18-16-|
|-------------------------------20-16-------------|
|-------------------------------------------------|
|-------------------------------------------------|
|-------------------------------------------------|
|
|  E     S  S  S  S  S  S  E     S  S  S  S  S  S
|-------------------------------------------------|
|-------------------------------------------------|
|-------------------------------------------------|
|--2-----2--2--2--2--2--2--2-----2--2--2--2--2--2-|
|--4-----4--4--4--4--4--4--4-----4--4--4--4--4--4-|
|-------------------------------------------------|

   E  S  S  E    S  S  S  S  S  S  S  S  S  S
|-15-13-11-15---13-11-15-16-15-13-13-15-13-11-|
|---------------------------------------------|
|---------------------------------------------|
|---------------------------------------------|
|---------------------------------------------|
|---------------------------------------------|
|
|  E  S  S  S S  S  S  E     S  S  S  S  S  S
|---------------------------------------------|
|---------------------------------------------|
|---------------------------------------------|
|--2--2--2--2-2--2--2--2-----2--2--2--2--2--2-|
|--4--4--4--4-4--4--4--4-----4--4--4--4--4--4-|
|---------------------------------------------|

   S  S  S  S  S  S S S S S  S  S  S  S  S  S
|-10-11---------------------------------------|
|----15-13------------------------------------|
|-------15-14-12-10-8-7-----------------------|
|-----------------------7-9-10-12-13-12-13-15-|
|---------------------------------------------|
|---------------------------------------------|
|
|  E     S  S  S  S S S E    S  S  S  S  S  S
|---------------------------------------------|
|---------------------------------------------|
|---------------------------------------------|
|--2-----2--2--2--2-2-2-2----2--2--2--2--2--2-|
|--4-----4--4--4--4-4-4-4----4--4--4--4--4--4-|
|---------------------------------------------|

   Q      Q      Q      S  S  S  S
|-20-----22-----23-----23-23-20----|
|----------------------------23-21-|
|----------------------------------|
|----------------------------------|
|----------------------------------|
|----------------------------------|
|
|  E S S  S S E  E S S  S  S  E
|----------------------------------|
|----------------------------------|
|----------------------------------|
|--2-2-2--2-2-2--2-2-2--2--2--2----|
|--4-4-4--4-4-4--4-4-4--4--4--4----|
|----------------------------------|

   S  S  S  S  S  S  S  S  S  S  S  S  S  S  S  S
|-------20-18-16-18-16-15-13-15-------------------|
|-21-23----------------------18-17----15-16-18-16-|
|-------------------------------20-16-------------|
|-------------------------------------------------|
|-------------------------------------------------|
|-------------------------------------------------|
|
|  E     S  S  S  S  E     E     S  S  S  S  E
|-------------------------------------------------|
|-------------------------------------------------|
|-------------------------------------------------|
|--1-----1--1--1--1--1-----1-----1--1--1--1--1----|
|--2-----2--2--2--2--2-----2-----2--2--2--2--2----|
|-------------------------------------------------|

   Q      Q      Q      Q
|-----------------------------|
|-16-----18-----20-----21-----|
|-----------------------------|
|-----------------------------|
|-----------------------------|
|-----------------------------|
|
|  E S S  S S E  E S S  S S E
|-----------------------------|
|-----------------------------|
|-----------------------------|
|--2-2-2--2-2-2--2-2-2--2-2-2-|
|--2-2-2--2-2-2--2-2-2--2-2-2-|
|-----------------------------|

   S  S  S  S  S  S  S  S  S  S  S  S  S  S  S S
|----20-18-20-18-20-18-20-18-17------------------|
|-23-------------------------20-18---------------|
|-------------------------------21-19-------17---|
|----------------------------------22-21-19-21---|
|-------------------------------------24-22------|
|------------------------------------------------|
|
|  E     S  S  S  S  E     E     S  S  S  S  E
|------------------------------------------------|
|------------------------------------------------|
|------------------------------------------------|
|--4-----4--4--4--4--4-----4-----4--4--4--4--4---|
|--6-----6--6--6--6--6-----6-----6--6--6--6--6---|
|------------------------------------------------|

  Q    Q    Q    Q      Q.      E  +H
|--------------------|------------------------|
|----------15---16---|-18---------------------|
|-----17-------------|---------17-(17)--------|
|--------------------|------------------------|
|--------------------|------------------------|
|--------------------|------------------------|
|
| E E  E E  E E  E E    E  E E  E   E  E E E
|--------------------|------------------------|
|--------------------|------------------------|
|--------------------|------------------------|
|-2----2----2----2---|--2----2------2----2----|
|-4-0--4-0--4-0--4-0-|--4--0-4--0---4--0-4-0--|
|---0----0----0----0-|-----0----0------0---0--|

  Q    Q    Q    Q      Q.      E  +Q     Q
|--------------------|-16------15-(15)---13-------|
|-----15---16---18---|----------------------------|
|--------------------|----------------------------|
|--------------------|----------------------------|
|--------------------|----------------------------|
|--------------------|----------------------------|
|
| E E  E E  E E  E E    E  E E  E   E  E  S S S S
|--------------------|----------------------------|
|--------------------|--------------------2-0-----|
|--------------------|-----------------4----3-1---|
|-4----4----4----4---|--4----4------4--4------4-3-|
|-6-2--6-2--6-2--6-2-|--6--2-6--2---6-----------6-|
|---2----2----2----2-|-----2----2-----------------|

  Q      Q    Q    Q      Q.      E  +S  S E  E  E
|----------------------|---------------------------|
|-------13---15---16---|-18------17-(17)-----18-20-|
|----------------------|---------20-(20)-----------|
|----------------------|---------------------------|
|----------------------|---------------------------|
|----------------------|---------------------------|
|
| S S E  E E  E E  E E    E  E E  E   E    E  E  E
|----------------------|---------------------------|
|----------------------|---------------------------|
|----------------------|---------------------------|
|-2------2----2----2---|--2----2------2-------2----|
|-4---0--4-0--4-0--4-0-|--4--0-4--0---4----0--4--0-|
|-----0----0----0----0-|-----0----0--------0-----0-|

   W                           H         S  S  S  S  S  S  S S
|---------------------------|----------------------------------|
|-20------------------------|-20--------19-18-16-14-12-10--8-6-|
|---------------------------|--------------21-19-17-16-13-11-9-|
|---------------------------|----------------------------------|
|---------------------------|----------------------------------|
|---------------------------|----------------------------------|
|
|  Q.    S S E E S  S  S  S    S S E Q   H
|--9-----9---9-9-8--8-------|----------------------------------|
|-------12---------11-10--8-|--6-------------------------------|
|---------------------13-11-|----------------------------------|
|---------------------------|----------------------------------|
|---------------------------|----------------------------------|
|---------------------------|----------------------------------|

  Q     Q       H
|-8-------------8--------------|
|-5----------------------------|
|------------------------------|
|------------------------------|
|------------------------------|
|------------------------------|
|
| E S S S S S S E S S S S S S
|------------------------------|
|------------------------------|
|------------------------------|
|------------------------------|
|-4-4-4-4-4-4-4-4-4-4-4-4-4-4--|
|-4-4-4-4-4-4-4-4-4-4-4-4-4-4--|

  Q      E.      S  +H                 H              H
|-8-----10------11-(11)-------------|-11-------------11-------------|
|-----------------------------------|-------------------------------|
|-----------------------------------|-------------------------------|
|-----------------------------------|-------------------------------|
|-----------------------------------|-------------------------------|
|-----------------------------------|-------------------------------|
|
| E S S  S  S S  S   E  S S S S S S    E S S S S S S  E S S S S S S
|-----------------------------------|-------------------------------|
|-----------------------------------|-------------------------------|
|-----------------------------------|-------------------------------|
|-----------------------------------|-------------------------------|
|-4-4-4--4--4-4--4---4--4-4-4-4-4-4-|--4-4-4-4-4-4-4--4-4-4-4-4-4-4-|
|-4-4-4--4--4-4--4---4--4-4-4-4-4-4-|--4-4-4-4-4-4-4--4-4-4-4-4-4-4-|

   Q      E.      S  +H                 H              H
|-11-----13------15-(15)-------------|-------------------------------|
|------------------------------------|-13-------------13-------------|
|------------------------------------|-------------------------------|
|------------------------------------|-------------------------------|
|------------------------------------|-------------------------------|
|------------------------------------|-------------------------------|
|
|  E S S  S  S S  S   E  S S S S S S    E S S S S S S  E S S S S S S
|------------------------------------|-------------------------------|
|------------------------------------|-------------------------------|
|------------------------------------|-------------------------------|
|------------------------------------|-------------------------------|
|--4-4-4--4--4-4--4---4--4-4-4-4-4-4-|--4-4-4-4-4-4-4--4-4-4-4-4-4-4-|
|--4-4-4--4--4-4--4---4--4-4-4-4-4-4-|--4-4-4-4-4-4-4--4-4-4-4-4-4-4-|

   Q      E.      S  +H                 E.    S  +E     E    Q.          S  S
|------------------------------------|-------15-(15)---13---18----------16-18-|
|-13-----15------16-(16)-------------|-16-------------------------------------|
|------------------------------------|----------------------------------------|
|------------------------------------|----------------------------------------|
|------------------------------------|----------------------------------------|
|------------------------------------|----------------------------------------|
|
|  E S S  S  S S  S   E  S S S S S S    E  S  S   S  S  S S  E  S S S S  S  S
|------------------------------------|----------------------------------------|
|------------------------------------|----------------------------------------|
|------------------------------------|----------------------------------------|
|------------------------------------|----------------------------------------|
|--4-4-4--4--4-4--4---4--4-4-4-4-4-4-|--4--4--4---4--4--4-4--4--4-4-4-4--4--4-|
|--4-4-4--4--4-4--4---4--4-4-4-4-4-4-|--4--4--4---4--4--4-4--4--4-4-4-4--4--4-|

   H.                   Q
|-20--------------------------*|
|-----------------------------*|
|-----------------------------*|
|-----------------------------*|
|-----------------------------*|
|-----------------------------*|
|
|  E  S S S S S S E S S S S E
|-----------------------------*|
|-----------------------------*|
|-----------------------------*|
|-----------------------------*|
|--4--4-4-4-4-4-4-4-4-4-4-----*|
|--4--4-4-4-4-4-4-4-4-4-4-----*|
Login or Register to remove this ad.