Ads

Where I Belong (Final Fantasy VIII) Guitar Tab

Submitted: Feb 05, 2009 by TheDoomOfAllFires (Last updated: Dec 30, 2009)

5
Average: 5 (7 votes)
Download | Listen
Game: Final Fantasy VIII
Composer(s): Nobuo Uematsu
Style: Arrangement, Fingerstyle
Series: Final Fantasy

AutoScroll: Slow | Medium | Fast
Final Fantasy VIII - Where I Belong
Arranged by TheDoomOfAllFires; 02/04/2009


Standard Tuning
Bpm=75


            ^                   ^                     ^                      
      E  E  E  E  Q    E  E     E  E  H.              E  E  Q.     E  E  E   
E||-----------------------0--|--4--5--2------------|--2--4--0------------0--|
B||---------------0----------|--------3------------|--------2------2--4-----|
G||*--------1--2-------------|--2------------------|--1---------------------|
D||*--------2-------------2--|--0------------------|------------------------|
A||------2-------------------|---------------------|--4---------------------|
E||---0-----0----------0-----|---------------------|------------------------|


  ^                            ^                   ^                      
  E   E  H.              E  E  E  E  Q    E  E     E  E   H        E  E   
----------------------|----------------------3--|--7--8------------------|
--3p--0--0------------|--------------3----------|--------10--------L--5--|
----------------------|--------4--5-------------|--5-----10--------L-----|
--4------4------------|--------5----------------|--3---------------------|
--2-------------------|-----5-------------------|------------------------|
----------------------|--3-----3----------3-----|------------------------|


  ^                                                                             
  Q.     S  S  E  Q.        E  E  E  E  E  E  E   E     E  E  E  E  Q    E  E   
--5------4p-2h-4--L------|--------------2-----0h--7--|--------------0-------4--|
-------------------------|-----------0-----4---------|--------2--3-------------|
--4---------------L------|--------3------------------|--------2----------------|
--2---------------L------|-----2---------------------|-----2-------------2-----|
-------------------------|---------------------------|--0-----------0----------|
-------------------------|--0------------------------|-------------------------|


                                                     ^                          
  E  E  H        E  E     E  E  E  E  E  E  E  E     E  E  E  E   E   E  E  E   
--2--------------------|-----------------------2--|--------0-------------------|
--------3--------L-----|--------0--2--3-----------|--4--------0h--2p--0--------|
-----2--2--------L-----|--------1-----------------|--------2-------------2-----|
--0-----------------0--|-----2--------------2-----|--2--2-------------------2--|
-----------------------|-----------------2--------|--0-------------------------|
-----------------------|--4-----------4-----------|----------------------------|


                                                          ^                  
  E  E  E  E  Q    E  E     E  E  H        E  E     E  E  E  E  E  E  E  E   
--------------0-------4--|--2--------------------|--------------------------|
--------2--3-------------|--------3--------L-----|--------0--2--3-----------|
--------2----------------|-----2--2--------L-----|--------1--------------1--|
-----2-------------2-----|--0-----------------0--|--------------------------|
--0-----------0----------|-----------------------|-----2--------------2-----|
-------------------------|-----------------------|--0-----0-----0--4--------|


                                        ^                                       
  E  E  E  E  E  Q    E     E  E  E  E  E  E  E  E     E  E  E  E  E  E  E  E   
-------------------------|-----------------------5--|--5-----------0--------5--|
--0----------------------|-----------5--7-----------|--------2--3-----2--------|
--------2-----2----------|--------7--------7--------|--------2-----------2-----|
-----2-----2-----2----2--|-----7--------7-----7-----|-----2--------------------|
--0----------------------|--5-----------5-----------|--0-----------0-----------|
-------------------------|--------------------------|--------------------------|


                            ^                                   ^            
  E  E  E  E  Q    E  E     E  E  Q    H            E  E  E  E  E  E  E  E   
--5-------------------2--|--------0----9~--------|-----------------------5--|
-----------2--3----------|--4--------------------|-----------5--7-----------|
--------4----------------|--2--------------------|--------7--------7--------|
-----4-------------4-----|-----2-----------------|-----7--------7-----7-----|
--2-----------2----------|--0--------------------|--5-----------5-----------|
-------------------------|-----------------------|--------------------------|


  E  E  E  E  E  E  E  E     E  E  E  E  E  E  Q       E  E  E  E  E  E  E  E   
--5-----------0--------5--|--5--------5--4----------|--0-----------------------|
--------2--3-----2--------|--------------------7----|--------3-----2-----0-----|
--------2-----------2-----|--------5----------------|--------------------------|
-----2--------------------|-----6-----------6-------|-----2-----------2--------|
--0-----------0-----------|--3-----------3----------|-----------2--------------|
--------------------------|-------------------------|--0--------------------0--|


  E  E  E  E  Q    E  E     E  E  H        E  E     E  E  E  E  E  E  E  E   
--------------0-------4--|--2--------------------|-----------------------2--|
--------2--3-------------|--------3--------L-----|--------0--2--3-----------|
--------2----------------|-----2--2--------L-----|--------1-----------------|
-----2-------------2-----|--0-----------------0--|-----2--------------2-----|
--0-----------0----------|-----------------------|-----------------2--------|
-------------------------|-----------------------|--4-----------4-----------|


  ^                                                                            
  E  E  E  E   E   E  E  E     E  E  E  E  Q    E  E     E  E  H        E  E   
--------0-------------------|--------------0-------4--|--2--------------------|
--4--------0h--2p--0--------|--------2--3-------------|--------3--------L-----|
--------2-------------2-----|--------2----------------|-----2--2--------L-----|
--2--2-------------------2--|-----2-------------2-----|--0-----------------0--|
--0-------------------------|--0-----------0----------|-----------------------|
----------------------------|-------------------------|-----------------------|


        ^                                                ^                  
  E  E  E  E  E  E  E  E     E  E  E  E  E  Q    E       W                  
--------------------------|--------------------------||-------------------||
--------0--2--3-----------|--0-----------------------||-------------------||
--------1--------------1--|--------2-----2----------*||--2----------------||
--------------------------|-----2-----2-----2-------*||--2----------------||
-----2--------------2-----|--0-------------------0---||--0----------------||
--0-----0-----0--4--------|--------------------------||-------------------||




Duration Legend
---------------
W - whole
H - half
Q - quarter
E - 8th
S - 16th
T - 32nd
X - 64th
. - note dotted
|-n-|  - n-tuplets


Tablature Legend
----------------
L - tied note
x - dead note
g - grace note
(n) - ghost note
> - accentuded note
NH - natural harmonic
AH - artificial harmonic
TH - tapped harmonic
SH - semi harmonic
PH - pitch harmonic
h - hammer on
p - pull off
b - bend
br - bendRelease
pb - preBend
pbr - preBendRelease
brb - bendReleaseBend
\n/ - tremolo bar dip
\n - tremolo bar dive
-/n - tremolo bar Release up
/n\ - tremolo bar inverted dip
/n - tremolo bar return
-\n - tremolo bar Release down
S - shift slide
s - legato slide
/ -  slide into from below or out of upwards
\ -  slide into from above or out of downwards
~ - vibrato
W - wide vibrato
tr - trill
TP - tremolo picking
T - tapping
S - slap
P - pop
< - fade in
^ - brush up
v - brush down
Login or Register to remove this ad.

2 comments on Where I Belong

very nice

very nice

I second that.

5

I second that.