Ads

Waltz for the Moon (Final Fantasy VIII) Guitar Tab

Submitted: Feb 01, 2009 by Shru (Last updated: Dec 30, 2009)

5
Average: 5 (10 votes)
Download | Listen
Game: Final Fantasy VIII
Composer(s): Nobuo Uematsu
Style: Arrangement, Fingerstyle
Series: Final Fantasy

Click here for a video example.

AutoScroll: Slow | Medium | Fast
                              Waltz for the Moon                                


                                    Nobuo Uematsu - arranged by GuitarGuy/ragose



     E  E  E  E  E  E     E  E  E  E  E  E       E  S S S S E  E  E   
E||--------------------|--------------------||----------0-3-0--------|
B||--------------------|--------------------||---1----3--------1--1--|
G||-----0--0-----0--0--|-----0--0-----0--0--||*----------------2--2--|
D||-----2--2-----2--2--|-----2--2-----2-----||*-----2----------------|
A||--3--------3--------|--3--------3--------||---3----------0--------|
E||--------------------|-----------------3--||-----------------------|


  S S S S S S E  E  E     E  S S S S E  E  E     S S  S S  S S  E  E  E   
----0------------------|---------0-3-7--------|--7-8---------------------|
--3---1---1---3--------|--1----3--------0--0--|------10-8-10-8--8-----8--|
--------2-----------0--|----------------0--0--|-----------------------7--|
-----------------------|-----2----------------|--7-----------------9-----|
-----------------2-----|--3-------------------|----------------10--------|
--1---------1-3--------|-------------0--------|--------------------------|


  E  S S S S E  S S S S    E  S S S S E  E  E     E  S S S S E  S S S S  
--8----8-7-5-5--3-----3-|--5----5-3------------|---------0-3-0----0-----|
-----5------------0-5---|-----------5-5--3-----|--1----3--------1---3-1-|
-----5------------------|-----5-------------0--|----------------2-------|
------------------------|--3-------------------|-----2------------------|
--0---------------------|----------------------|--3----------0----------|
-------------0----------|-------------3--------|------------------------|


  E  E  E  E  E  E       E  E  E  E  E  E     E  E  E  E  E  E   
--0------------------||--0-----------------|--------0--3--7-----|
--------3--1---------||--------3--1--------|-----1--1--------6--|
--------0--0-----0--*||--------0-----0--0--|-----0--0-----------|
--------------2-----*||--------------2--2--|-----2--2-----7-----|
-----2-----3---------||-----2-----3--------|--3-----------------|
--3------------------||--3-----------------|--------------------|


                          ^                                    
  E  E  E  E  E  E     E  E  E  E  E  E     E  E  E  E  E  E   
--5--5--------------|--5--5--7--8--5-----|-----3--------------|
--------6--6-----6--|-----6-----------5--|--5-----5--------1--|
--------5--5-----5--|-----5-----------5--|--5-----5--------0--|
--------------7-----|-----7--------------|--------------------|
-----8--------------|--------------3-----|-----3--------3-----|
--------------------|--------------------|-----------3--------|


                                               ^               
  E  E  E  E  E  E     E  E  E  E  E  E     E  E  E  E  E  E   
-----0--1--3--3-----|--1--1--------------|-----1--3--5--5-----|
--1--1-----------3--|--------3--------3--|--3--3-----------5--|
--0--0-----------3--|--------3--------3--|--3--3-----------5--|
--------------------|--------------------|--------------------|
-----3--------1-----|-----1--------1-----|-----1--------3-----|
--------------------|-----------1--------|--------------------|


  E  E  E  E  E  E     E  E  E  E  E  E     E  E  E  E  E  E   
--3--3--------------|--------0--3--7-----|--5--5--------------|
--------5--------1--|--1--1--1--------6--|--------6--6-----6--|
--------5--------0--|--0--0--0-----------|--------5--5-----5--|
--------------------|-----2--2-----7-----|--------------7-----|
-----3--------3-----|-----3--3-----------|-----8--------------|
-----------3--------|--------------------|--------------------|


     ^                                                          
  E  E  E  E  E  E     E  E  E   E  E  E     E  E  E  E  E  E   
--5--5--7--8--7-----|-----3-----/7--5-----|--------------------|
-----6-----------0--|--0-----0---------5--|--5-----5--8--8--6--|
-----5-----------0--|--0-----0---------6--|--6-----6--------5--|
-----7--------------|---------------------|-----7--------------|
--------------------|---------------------|--------------5-----|
--------------0-----|-----0---------5-----|--------------------|


  E  E  E  E  E  E     S  S E  E  E  E  S  S    E  E  E  E  E  E   
--8--1--------------|-------0----------------|--------------------|
--------1--1--------|--1h-3----1--1-----1h-3-|--1-----3-----------|
--------2--2-----2--|----------0--0----------|-----0-----0--0-----|
--------------3-----|----------------2-------|-----------0--0-----|
--------------------|-------3----------------|-----------------2--|
-----1--------------|------------------------|--------3-----------|


  E  E  E  E  E  E     E  E  E  E  E  E     E  E  E  S S S S E   
--------------------|--------------------|---------------0-3-0--|
-----3--1-----------|--------------------|-----3--1----3--------|
--0--------0--0-----|--0--0-----0--0-----|--0-------------------|
--0--------2--2-----|--2--2-----2--2-----|--2--0-----2----------|
--------3--------3--|--------3--------3--|--------3----------0--|
--------------------|--------------------|----------------------|


  E  E  S S S S S S E     E  E  E  S S S S E     E  E  S S  S S  S S  E   
----------0------------|---------------0-3-7--|--------7-8---------------|
--1--1--3---1---1---3--|--------1----3--------|--0--0------10-8-10-8--8--|
--2--2--------2--------|-----0----------------|--0--0--------------------|
-----------------------|-----------2----------|--------7-----------------|
-----------------------|--2-----3-------------|----------------------10--|
--------1---------1-3--|-------------------0--|--------------------------|


  E  E  E  S S S S E     S S S S E  S S S S E     E  E  E  S S S S E   
--------8----8-7-5-5--|--3-----3-5----5-3------|---------------0-3-0--|
-----8-----5----------|----0-5------------5-5--|--3-----1----3--------|
-----7-----5----------|-------------5----------|-----0----------------|
--9-------------------|----------3-------------|-----------2----------|
--------0-------------|------------------------|--------3----------0--|
-------------------0--|---------------------3--|----------------------|


                   ^                    
  S S S S E  E  E  E     H.             
----0-----0-----------|---------------||
--1---3-1-------3--1--|--L------------||
--2-------------0--0--|--L------------||
-------------------2--|--L------------||
-------------2-----3--|--L------------||
----------3-----------|---------------||
Login or Register to remove this ad.

12 comments on Waltz for the Moon

beautiful tab

beautiful tab

good

5

good job man:)nice tab................

hey, i adored this song, but

hey, i adored this song, but I'm really just a beginner and can't fingerpick for teh life of me, is there an easier version?

FUCK!

Where is Lonlonjp tabs !!!!!?????

This is SHIT!! I need lon

This is SHIT!! I need lon lonlonjp!!!

Oh shit he mad

Oh shit he mad

Wat the fuck? i wright in the

Wat the fuck? i wright in the google "lonlonjp waltz of the moon" and, i come to here... And what i see? I see lie, and fuck'n shit under goglemask lonlonjp!!! Where is lonlonjp tabs!!!??? I need to see it, fuckin quick!

Farewell, Venom! You were

Farewell, Venom! You were true to your name.

this guy


this guy

hahahahhaahhhahahah

hahahahhaahhhahahah

Quite good! But the intro and

5

Quite good! But the intro and some parts (like when it changes the tempo) are missing.I'm going to finish learning this one, and then I'm going to lear Lonlonjp's, and see wich one I like more.

The meter gets off midway

The meter gets off midway through, and beat 1 is no longer beat 1.

Still saving because decent arrangement, though I didn't play all the way through.