Ads

Find Your Way (Final Fantasy VIII) Guitar Tab

Submitted: Mar 17, 2009 by TheDoomOfAllFires (Last updated: Jan 31, 2010)

5
Average: 5 (13 votes)
Download | Listen
Game: Final Fantasy VIII
Composer(s): Nobuo Uematsu
Style: 2 or more instruments, Arrangement, Fingerstyle
Series: Final Fantasy

AutoScroll: Slow | Medium | Fast
Final Fantasy VIII - Find Your Way
Arranged by TheDoomOfAllFires; 03/16/2009

BPM=65

Guitar 1 : Standard tuning
Guitar 2 : Drop-D tuning



Guitar 1:


      ^              ^            ^        ^       ^                    
      E  E  H        Q       Q    H        Q       E  E  Q    H         
E||------0--0--------7----|--L----3-------------|----------------------|
B||---------1-------------|-------1--------3----|--1-------------------|
G||*--2--------------9----|--L----0--------2----|-----2--2-------------|
D||*--2--------------7----|--L-------------2----|--2-----2----2--------|
A||---0-------------------|---------------------|--0----------0--------|
E||-----------------------|---------------------|----------------------|


                      ^               ^            ^        ^     
  W                   E  E  Q    Q    Q       Q    H        Q     
-------------------|--3--0--0---------7----|--L----3-------------|
-------------------|------------------8----|--L----5--------3----|
--L----------------|--------0---------9----|-------4--------0----|
--L----------------|--2---------------9----|--L-------------0----|
--L----------------|--2--------------------|---------------------|
-------------------|--0----------0---------|---------------------|


  ^             ^            ^        ^     
  H        Q    Q       Q    H        Q     
----------------7----|--L----3-------------|
----------------8----|--L----5--------3----|
----------------9----|-------4--------0----|
--2-------------9----|--L-------------0----|
--2------------------|---------------------|
--0--------0---------|---------------------|


       |-3-| |-3-| |-3-| |-3-| |-3-| |-3-|  
  Q    S S S S S S S S S S S S S S S S S S  
-------5-----5-----------------------------|
-------------------8-----6-----5-----5-----|
---------5-----5-----5-----5-----5-----5---|
-----------7-----7-----7-----7-----7-----7-|
--0----------------------------------------|
-------------------------------------------|


       |-3-| |-3-| |-3-| |-3-| |-3-| |-3-|  
  Q    S S S S S S S S S S S S S S S S S S  
-------5-----5-----------------------------|
-------------------8-----6-----5-----5-----|
---------5-----5-----5-----5-----5-----5---|
-----------7-----7-----7-----7-----7-----7-|
-------------------------------------------|
--5----------------------------------------|


       |-3-| |-3-| |-3-| |-3-| |-3-| |-3-|  
  Q    S S S S S S S S S S S S S S S S S S  
-------5-----5-----------------------------|
-------------------8-----6-----5-----5-----|
---------5-----5-----5-----5-----5-----5---|
-----------7-----7-----7-----7-----7-----7-|
-------------------------------------------|
--5----------------------------------------|


  |--3-| |-3-| |-3-| |-3-| |-3-| |--3-| |-3-| |-3-|  
  S  S S S S S S S S S S S S S S S S  S S S S S S S  
---------0-----1-----3-----0-----0------0-----0-----|
--3p-0-----0-----0-----0-------1---0h-1-----1-----1-|
-------0-----0-----0-----0---2------------2-----1---|
----------------------------------------------------|
---------------------------0------------------------|
--3-------------------------------------------------|


       |-3-| |-3-| |-3-| |-3-| |-3-| |-3-|  
  Q    S S S S S S S S S S S S S S S S S S  
-------5-----5-----------------------------|
-------------------8-----6-----5-----5-----|
---------5-----5-----5-----5-----5-----5---|
-----------7-----7-----7-----7-----7-----7-|
--0----------------------------------------|
-------------------------------------------|


       |-3-| |-3-| |-3-| |-3-| |-3-| |-3-|  
  Q    S S S S S S S S S S S S S S S S S S  
-------5-----5-----------------------------|
-------------------8-----6-----5-----5-----|
---------5-----5-----5-----5-----5-----5---|
-----------7-----7-----7-----7-----7-----7-|
-------------------------------------------|
--5----------------------------------------|


       |-3-| |-3-| |-3-| |-3-| |-3-| |-3-|  
  Q    S S S S S S S S S S S S S S S S S S  
-------5-----5-----------------------------|
-------------------8-----6-----5-----5-----|
---------5-----5-----5-----5-----5-----5---|
-----------7-----7-----7-----7-----7-----7-|
-------------------------------------------|
--5----------------------------------------|


  |--3-| |-3-| |-3-| |-3-| |-3-| |--3-| |-3-| |-3-|  
  S  S S S S S S S S S S S S S S S S  S S S S S S S  
---------0-----1-----3-----0-----0------0-----0-----|
--3p-0-----0-----0-----0-------1---0h-1-----1-----1-|
-------0-----0-----0-----0---2------------2-----1---|
----------------------------------------------------|
---------------------------0------------------------|
--3-------------------------------------------------|


       |-3-| |-3-| |-3-| |-3-| |-3-| |-3-|  
  Q    S S S S S S S S S S S S S S S S S S  
-------2-----2-----------------------------|
-------------------5-----3-----2-----2-----|
---------2-----2-----2-----2-----2-----2---|
-----------4-----4-----4-----4-----4-----4-|
-------------------------------------------|
--2----------------------------------------|


       |-3-| |-3-| |-3-| |-3-| |-3-| |-3-|  
  Q    S S S S S S S S S S S S S S S S S S  
-------2-----2-----------------------------|
-------------------5-----3-----2-----2-----|
---------2-----2-----2-----2-----2-----2---|
-----------4-----4-----4-----4-----4-----4-|
-------------------------------------------|
--2----------------------------------------|


       |-3-| |-3-| |-3-| |-3-| |-3-| |-3-|  
  Q    S S S S S S S S S S S S S S S S S S  
-------2-----2-----------------------------|
-------------------5-----3-----2-----2-----|
---------2-----2-----2-----2-----2-----2---|
-----------4-----4-----4-----4-----4-----4-|
-------------------------------------------|
--2----------------------------------------|


  |-3-| |-3-| |-3-| |-3-| |-3-| |-3-| |-3-| |-3-|  
  S S S S S S S S S S S S S S S S S S S S S S S S  
--------------------0-----------------------------|
--0-----2-----3-----------2-----2-----2-----2-----|
----1-----1-----1-----1-2-----2-----2-----2-----2-|
------2-----2-----2---------4-----3-----2-----1---|
--------------------------------------------------|
--0-----------------------2-----------------------|


       |-3-| |-3-| |-3-| |-3-| |-3-| |-3-|  
  Q    S S S S S S S S S S S S S S S S S S  
-------2-----2-----------------------------|
-------------------5-----3-----2-----2-----|
---------2-----2-----2-----2-----2-----2---|
-----------4-----4-----4-----4-----4-----4-|
-------------------------------------------|
--2----------------------------------------|


       |-3-| |-3-| |-3-| |-3-| |-3-| |-3-|  
  Q    S S S S S S S S S S S S S S S S S S  
-------2-----2-----------------------------|
-------------------5-----3-----2-----2-----|
---------2-----2-----2-----2-----2-----2---|
-----------4-----4-----4-----4-----4-----4-|
-------------------------------------------|
--2----------------------------------------|


       |-3-| |-3-| |-3-| |-3-| |-3-| |-3-|  
  Q    S S S S S S S S S S S S S S S S S S  
-------2-----2-----------------------------|
-------------------5-----3-----2-----2-----|
---------2-----2-----2-----2-----2-----2---|
-----------4-----4-----4-----4-----4-----4-|
-------------------------------------------|
--2----------------------------------------|


  |-3-| |-3-| |-3-| |-3-| |-3-| |-3-| |-3-| |-3-|            
  S S S S S S S S S S S S S S S S S S S S S S S S            
--------------------0-----------------------------|----|----|
--0-----2-----3-----------2-----2-----2-----2-----|----|----|
----1-----1-----1-----1-2-----2-----2-----2-----2-|----|----|
------2-----2-----2---------4-----3-----2-----1---|----|----|
--------------------------------------------------|----|----|
--0-----------------------2-----------------------|----|----|


  Q    E  Q    Q    E     H        Q    Q       Q    Q    H         
-----------------------|-----------2----2----|--0------------------|
-----------------------|---------------------|-------3----2--------|
--------------------1--|--2--------L---------|---------------------|
--1----L--3----4-------|---------------------|---------------------|
-----------------------|---------------------|---------------------|
-----------------------|---------------------|---------------------|


  Q    E  Q    Q    E     H        Q    Q       Q    Q    H         
-----------------------|-----------8----8----|--6------------------|
----------0----1----3--|--4------------------|-------9----8--------|
--2----L---------------|---------------------|---------------------|
-----------------------|---------------------|---------------------|
-----------------------|---------------------|---------------------|
-----------------------|---------------------|---------------------|


  H        Q    Q       Q    Q    H                        
-----------8----8----|--6-------------------||-----------||
---------------------|-------9----8---------||-----------||
---------------------|---------------------*||-----------||
---------------------|---------------------*||-----------||
---------------------|----------------------||-----------||
---------------------|----------------------||-----------||





Guitar 2:



      E  E  E  E  E  E  E  E     E  E  E  E  E  E  E  E   
E||---------------------------|--------------------------|
B||---------------------------|--------------------------|
G||*--------------------0-----|--------------------0-----|
D||*-----2--3--2-----3-----2--|-----2--3--2-----3-----2--|
A||---0-----------0-----------|--0-----------0-----------|
D||---------------------------|--------------------------|


  E  E  E  E  E  E  E  E     E  E  E  E  E  E  E  E   
--------------------------|--------------------------|
--------------------------|--------------------------|
--------------------0-----|--------------------0-----|
-----2--3--2-----3-----2--|-----2--3--2-----3-----2--|
--0-----------0-----------|--0-----------0-----------|
--------------------------|--------------------------|


  E  E  E  E  E  E  E  E     E  E  E  E  E  E  E  E   
--------------------------|--------------------------|
--------------------------|--------------------------|
--------------------------|--------------------------|
--------------------0-----|--------------------0-----|
-----2--3--2-----3-----2--|-----2--3--2-----3-----2--|
--2-----------2-----------|--2-----------2-----------|


  E  E  E  E  E  E  E  E     E  E  E  E  E  E  E  E   
--------------------------|--------------------------|
--------------------------|--------------------------|
--------------------------|--------------------------|
--------------------0-----|--------------------0-----|
-----2--3--2-----3-----2--|-----2--3--2-----3-----2--|
--2-----------2-----------|--2-----------2-----------|


  E  E  E  E  E  E  E  E     E  E  E  E  E  E  E  E   
--------------------------|--------------------------|
--------------------------|--------------------------|
--------------------0-----|--------------------0-----|
-----2--3--2-----3-----2--|-----2--3--2-----3-----2--|
--0-----------0-----------|--0-----------0-----------|
--------------------------|--------------------------|


  E  E  E  E  E  E  E  E     E  E  E  E  E  E  E  E   
--------------------------|--------------------------|
--------------------------|--------------------------|
--------------------0-----|--------------------------|
-----2--3--2-----3-----2--|--------5--------2--3--2--|
--0-----------0-----------|-----5--------0-----------|
--------------------------|--5--------5--------------|


  E  E  E  E  E  E  E  E     E  E  E  E  E  E  E  E   
--------------------------|--------------------------|
--------------------------|--------------------------|
--------------------0-----|--------------------0-----|
-----2--3--2-----3-----2--|-----2--3--2-----3-----2--|
--0-----------0-----------|--0-----------0-----------|
--------------------------|--------------------------|


  E  E  E  E  E  E  E  E     E  E  E  E  E  E  E  E   
--------------------------|--------------------------|
--------------------------|--------------------------|
--------------------0-----|--------------------------|
-----2--3--2-----3-----2--|--------5--------2--3--2--|
--0-----------0-----------|-----5--------0-----------|
--------------------------|--5--------5--------------|


  E  E  E  E  E  E  E  E     E  E  E  E  E  E  E  E   
--------------------------|--------------------------|
--------------------------|--------------------------|
--------------------------|--------------------------|
--------0--------0--2-----|--------0--------0--2-----|
-----4-----4-----------4--|-----4-----4-----------4--|
--4-----------4-----------|--4-----------4-----------|


  E  E  E  E  E  E  E  E     E  E  E  E  E  E  E  E   
--------------------------|--------------------------|
--------------------------|--------------------------|
--------------------------|--------------------------|
--------0--------0--2-----|--------2-----------0-----|
-----4-----4-----------4--|-----2-----------4-----4--|
--4-----------4-----------|--2--------2--4-----------|


  E  E  E  E  E  E  E  E     E  E  E  E  E  E  E  E   
--------------------------|--------------------------|
--------------------------|--------------------------|
--------------------------|--------------------------|
--------0--------0--2-----|--------0--------0--2-----|
-----4-----4-----------4--|-----4-----4-----------4--|
--4-----------4-----------|--4-----------4-----------|


  E  E  E  E  E  E  E  E     E  E  E  E  E  E  E  E   
--------------------------|--------------------------|
--------------------------|--------------------------|
--------------------------|--------------------------|
--------0--------0--2-----|--------2-----------0-----|
-----4-----4-----------4--|-----2-----------4-----4--|
--4-----------4-----------|--2--------2--4-----------|


  E  E  E  E  E  E  E  E     E  E  E  E  E  E  E  E   
--------------------------|--------------------------|
--------------------------|--------------------------|
--------------------------|--------------------------|
--------------------------|--------------------------|
-----1--2--1-----2--4--1--|-----1--2--1-----2--4--1--|
--1-----------1-----------|--1-----------1-----------|


  E  E  E  E  E  E  E  E     E  E  E  E  E  E  E  E   
--------------------------|--------------------------|
--------------------------|--------------------------|
--------------------------|--------------------------|
--------------------------|--------------------------|
-----1--2--1-----2--4--1--|-----4--5--4-----5--7--4--|
--1-----------1-----------|--4-----------4-----------|


  E  E  E  E  E  E  E  E     E  E  E  E  E  E  E  E   
--------------------------|--------------------------|
--------------------------|--------------------------|
--------------------------|--------------------0-----|
--------------------------|-----2--3--2-----3-----2--|
-----4--5--4-----5--7--4--|--0-----------0-----------|
--4-----------4-----------|--------------------------|


  E  E  E  E  E  E  E  E     E  E  E  E  E  E  E  E   
--------------------------|--------------------------|
--------------------------|--------------------------|
-----0--1--0-----1--3--0--|-----0--1--0-----1--3--0--|
--------------------------|--------------------------|
--3-----------3-----------|--3-----------3-----------|
--------------------------|--------------------------|


                                                          ^                  
  E  E  E  E  E  E  E  E     E  E  E  E  E  E  E  E       W                  
--------------------------|---------------------------||-------------------||
--------------------------|---------------------------||--1----------------||
-----0--1--0-----1--3--0--|-----0--1--0-----1--3--0--*||--0----------------||
--------------------------|--------------------------*||-------------------||
--3-----------3-----------|--3-----------3------------||--3----------------||
--------------------------|---------------------------||-------------------||





Duration Legend
---------------
W - whole
H - half
Q - quarter
E - 8th
S - 16th
T - 32nd
X - 64th
. - note dotted
|-n-|  - n-tuplets


Tablature Legend
----------------
L - tied note
x - dead note
g - grace note
(n) - ghost note
> - accentuded note
NH - natural harmonic
AH - artificial harmonic
TH - tapped harmonic
SH - semi harmonic
PH - pitch harmonic
h - hammer on
p - pull off
b - bend
br - bendRelease
pb - preBend
pbr - preBendRelease
brb - bendReleaseBend
\n/ - tremolo bar dip
\n - tremolo bar dive
-/n - tremolo bar Release up
/n\ - tremolo bar inverted dip
/n - tremolo bar return
-\n - tremolo bar Release down
S - shift slide
s - legato slide
/ -  slide into from below or out of upwards
\ -  slide into from above or out of downwards
~ - vibrato
W - wide vibrato
tr - trill
TP - tremolo picking
T - tapping
S - slap
P - pop
< - fade in
^ - brush up
v - brush down
Login or Register to remove this ad.

12 comments on Find Your Way

I LOVE this song. It's so

5

I LOVE this song. It's so freakin wicked it drives me nuts. Thanks so much for tabbing it Doom, great job :)

Yeah good job Doom, it sounds

12.75

Yeah good job Doom, it sounds great. Just a point of interest, why did you put this in 6/4 ?

As I was looking at the tab I saw all the dotted notes, was there any particular reasoning behind this?

In that case 6/4 is just

In that case 6/4 is just clearer than 4/4 (well, at least for the arpeggio, i don't really like to see tabs with bunches of n-tuplets... Just a matter of taste XD).

I'd beg you to reconsider.

I'd beg you to reconsider. Have you tried actually tapping your foot to this? It's almost impossible to keep time. Plus, the triplet patterns help people understand that it should "feel" in 3's. If a person turns on the metronome this is going to throw them all off as they'll be playing staggered 8th note triplets.

Ok, i will update the tab.

Ok, i will update the tab.

Edit : Done

I like compound time. In

I like compound time. In this song they feel like triplets to me, but I have no problem counting with a dotted eighth / dotted quarter beat in general.

Sure, but when you're playing

Sure, but when you're playing this you're not counting the dotted 8ths as dotted 8ths in 6/4, I'm sure you're counting them as 8ths in 4/4 with every two 8ths on a beat. If you were really counting this as dotted notes in 6/4 you've got notes playing on all parts of the beat.

That being said, because you're not going to be actually playing this as it's written, there's no reason not to write it as you're going to play it. It's more accurate and looks better than having dots everywhere and triplets that aren't marked. It's just a matter of removing the dots, adding triplet marks, and writing 4/4 at the beginning. It's not a huge deal but if you've got the metronome going to keep tempo it will probably screw people up.

Updated =)

Updated =)

At Last

12.75

I have been looking for a tab to this song for a LONG time. Finally I have one to play with. Thanks, Doom!

Your arrangements are so awesome!

5

I've been dying to play this! Thanks a lot. Your tabs are really great, you tabbing all FF songs that haven't been tabbed, so far an awesome job. PLS do keep it up. How about a tab of Succesion of Witches or (FF8) Castle?

I get very intimidated with

5

I get very intimidated with all this technical talk between great masters.
But, well, I liked this arrangement very much. It's one of my favorite duets in this site. Everything is perfectly placed! You made it dense and playable at the same time!

Thank you for sharing it with us!

Going to 5 star this business

5

Going to 5 star this business fo sho.

The midi chords in the opening sound a little cloggy, maybe just because they're rolling arpeggiated instead of hit squarely on. I'll probably record a sample take and see if it's just the rolling-ness of them, or if they really are cloggy. It could be the midi sound itself too. Midis just never sound as good as the real instrument.