Ads

Eyes On Me (beginner version) (Final Fantasy VIII) Guitar Tab

Submitted: Sep 16, 2008 by TheDoomOfAllFires (Last updated: Jun 08, 2010)

4.5
Average: 4.5 (2 votes)
Download | Listen
Game: Final Fantasy VIII
Composer(s): Nobuo Uematsu
Style: Arrangement, Fingerstyle
Series: Final Fantasy

AutoScroll: Slow | Medium | Fast
Final Fantasy 8 - Eyes On Me (Abridged)
Arranged & tabbed by TheDoomOfAllFires, 9/15/2008


Bpm = 110
Standard tuning



     E  E  E  E  E  E  Q       E  E   E  Q    E   Q     
E||--------------------1----|--------------------------|
B||--------1-----3----------|--3---------3-------------|
G||--3-----------3----------|-----0h--3-------3p--0----|
D||-----3-----3-----0-------|--------------------------|
A||--1----------------------|--------------------------|
E||-------------------------|--3-----------------------|


  E  E  H        E   E     H        H           E  E  E  E  E  E  Q     
------------------------|--------------------|--------------------1----|
--1--3------------------|--1-----------------|--------1-----3----------|
--------3--------0h--3--|-----------2--------|--3-----------3----------|
------------------------|-----------3--------|-----3-----3-----0-------|
--3--------------1------|--------------------|--1----------------------|
------------------------|--1-----------------|-------------------------|


  E  E  H.              E  E  H        E  E     H        H         
--5------------------|--5--6--3--------1--3--|--1--------1--------|
--------3------------|--------4--------------|--------------------|
-----2---------------|-----------------------|--------------------|
--0------------------|--1--------------------|--------------------|
---------------------|-----------------------|--3--------0--------|
---------------------|-----------------------|--------------------|


  E  E  E  E  Q    E  E     E  E  H        E  E     E  E   E  E  Q    Q     
--6--------6--5----3-----|--3-----1-----------1--|--3---------3--1---------|
-------------------3-----|-----------------3-----|--------------------4----|
--------3-------------0--|-----------------------|-----0h--3---------------|
-----5-------------0-----|--3--3-----------------|--1----------------------|
-------------------------|-----------------------|-------------------------|
--3----------------------|-----------------------|-------------------------|


  E  E  H        E  E     E  E  E  E  Q    E  E     E  E  H        E  E   
-----------------------|-------------------------|-----------------------|
--4--1--3--------L--3--|--3-----1--3--4----3--1--|--1--------------------|
--------3--------L-----|--------------5----------|--------3--------0--3--|
-----------------------|-----1-------------------|-----0--5--------------|
--1--------------------|-------------------------|-----------------------|
-----------------------|--4-----------4----------|--3--------------------|


  E  E  E  E  E  E  E  E     H        H           E  E  E  E  E  E  Q     
-----------------------1--|--------------------|--------------------1----|
-----------------1--3-----|--1-----------------|--------1-----3----------|
--3--------3--L-----------|-----------2--------|--3-----------3----------|
--------5-----------------|-----------3--------|-----3-----3-----0-------|
-----5--------------------|--------------------|--1----------------------|
--3-----------------------|--1-----------------|-------------------------|


  E  E   E  Q    E   Q       E  E  H        E   E     H        H         
--------------------------|------------------------|--------------------|
--3---------3-------------|--1--3------------------|--1-----------------|
-----0h--3-------3p--0----|--------3--------0h--3--|-----------2--------|
--------------------------|------------------------|-----------3--------|
--------------------------|--3--------------1------|--------------------|
--3-----------------------|------------------------|--1-----------------|


  E  E  E  E  E  E  Q       E  E  H.              E  E  H        E  E   
--------------------1----|--5------------------|--5--6--3--------1--3--|
--------1-----3----------|--------3------------|--------4--------------|
--3-----------3----------|-----2---------------|-----------------------|
-----3-----3-----0-------|--0------------------|--1--------------------|
--1----------------------|---------------------|-----------------------|
-------------------------|---------------------|-----------------------|


  H        H           E  E  E  E  Q    E  E     E  E  H        E  E   
--1--------1--------|--6--------6--5----3-----|--3-----1-----------1--|
--------------------|-------------------3-----|-----------------3-----|
--------------------|--------3-------------0--|-----------------------|
--------------------|-----5-------------0-----|--3--3-----------------|
--3--------0--------|-------------------------|-----------------------|
--------------------|--3----------------------|-----------------------|


  E  E   E  E  Q    Q       E  E  H        E  E     E  E  E  E  Q    E  E   
--3---------3--1---------|-----------------------|-------------------------|
--------------------4----|--4--1--3--------L--3--|--3-----1--3--4----3--1--|
-----0h--3---------------|--------3--------L-----|--------------5----------|
--1----------------------|-----------------------|-----1-------------------|
-------------------------|--1--------------------|-------------------------|
-------------------------|-----------------------|--4-----------4----------|


  E  E  H        E  E     E  E  E  E  E  E  E  E     H        H         
-----------------------|-----------------------1--|--------------------|
--1--------------------|-----------------1--3-----|--1-----------------|
--------3--------0--3--|--3--------3--L-----------|-----------2--------|
-----0--5--------------|--------5-----------------|-----------3--------|
-----------------------|-----5--------------------|--------------------|
--3--------------------|--3-----------------------|--1-----------------|


  ^                  
  W                  
--1----------------||
--3----------------||
--3----------------||
--3----------------||
--1----------------||
-------------------||
Login or Register to remove this ad.