Ads

Weapon Raid (Final Fantasy VII) Guitar Tab

Submitted: Mar 14, 2009 by Shadow2

4
Average: 4 (4 votes)
Download | Listen
Game: Final Fantasy VII
Composer(s): Nobuo Uematsu
Style: Transcription
Series: Final Fantasy

AutoScroll: Slow | Medium | Fast
Weapon Raid
Final Fantasy VII
Composed by Nobuo Uematsu
Tabbed by Maxim Panin
3/12/2009

                                    Seq-1                                       


ST1
     H           Q    Q    Q    Q       Q    Q    Q    Q     
E||-----------|----------------------|----------------------|
B||-----------|-------2----1----2----|--4----2----1----2----|
G||-----------|--3-------------------|----------------------|
D||-----------|----------------------|----------------------|
A||-----------|----------------------|----------------------|
E||-----------|----------------------|----------------------|


  Q    Q    Q    Q       Q    Q    Q    Q       Q    Q    Q    Q     
--1----4----3----4----|--6----4----3----4----|--6----9----8----9----|
----------------------|----------------------|----------------------|
----------------------|----------------------|----------------------|
----------------------|----------------------|----------------------|
----------------------|----------------------|----------------------|
----------------------|----------------------|----------------------|


   Q    Q    Q    Q        Q     Q     Q     Q        Q     Q     Q     Q     
--11----9----8----9----|--13----16----15----16----|--18----16----15----16----|
-----------------------|--------------------------|--------------------------|
-----------------------|--------------------------|--------------------------|
-----------------------|--------------------------|--------------------------|
-----------------------|--------------------------|--------------------------|
-----------------------|--------------------------|--------------------------|


   E   S S  S S  E   S S  S S  E   S S     S S  E   S S  S S  E   E   E   E   
--21--20---21---18--17---18------------|-------------------------------------|
------------------------------18--17---|--18---------------------------------|
---------------------------------------|-------18--17---18---15--------------|
---------------------------------------|-------------------------15--13--11--|
---------------------------------------|-------------------------------------|
---------------------------------------|-------------------------------------|


   Q     Q     Q     Q       Q    Q    Q    Q       Q    Q    Q    Q     
--------------------------|----------------------|-------4----3----4----|
--------------------------|----------------------|--6-------------------|
--------------------------|--8----6----5----6----|----------------------|
--------11----10----11----|----------------------|----------------------|
--13----------------------|----------------------|----------------------|
--------------------------|----------------------|----------------------|


  Q    Q    Q    Q       Q    Q    Q    Q        Q    Q    Q    Q     
--6----4----3----4----|--6----9----8----9----|--11----9----8----9----|
----------------------|----------------------|-----------------------|
----------------------|----------------------|-----------------------|
----------------------|----------------------|-----------------------|
----------------------|----------------------|-----------------------|
----------------------|----------------------|-----------------------|


   Q     Q     Q     Q        Q     Q     Q     Q     
--13----16----15----16----|--18----16----15----16----|
--------------------------|--------------------------|
--------------------------|--------------------------|
--------------------------|--------------------------|
--------------------------|--------------------------|
--------------------------|--------------------------|


   E   E   E   E   E   E   E   E      E   E   E   E   E   E   E   E   
--21--20--21--18--17--18----------|--------------------------13--18--|
--------------------------18--17--|--18------------------14----------|
----------------------------------|------18--17--18--15--------------|
----------------------------------|----------------------------------|
----------------------------------|----------------------------------|
----------------------------------|----------------------------------|


   E   E   E   E   E   E   E   E      E   E   E   E   E   E   E   E   
--25--24--25--21--20--21--18--17--|--18----------------------18--21--|
----------------------------------|------18--17--18------18----------|
----------------------------------|------------------18--------------|
----------------------------------|----------------------------------|
----------------------------------|----------------------------------|
----------------------------------|----------------------------------|


   Q     E   E   Q     E   E      E   E   E   E   Q     Q     
------------------------------|------------------------------|
------------------------------|------------------------------|
------------------------------|------------------------------|
------------------------------|------------------------------|
------------------------------|------------------------19----|
--22----19--21--22----19--21--|--22--21--19--21--22----------|


   W                   W                   Q    E  E  Q    E  E   
--------------------|-------------------|--0----------0----------|
--------------------|-------------------|-------2--4-------2--4--|
--------------------|-------------------|------------------------|
--------------------|-------------------|------------------------|
--20----------------|--L----------------|------------------------|
--------------------|-------------------|------------------------|


  E  E  E  E  Q    Q       W                   W                 
--0-----------0----2----|--4----------------|--L----------------|
-----4--2--4------------|-------------------|-------------------|
------------------------|-------------------|-------------------|
------------------------|-------------------|-------------------|
------------------------|-------------------|-------------------|
------------------------|-------------------|-------------------|


  Q    E  E  Q    E  E     E  E  E  E  Q    Q       Q    E  E  Q    E  E   
--4-------3--4----1--3--|--4--3--1--3--4----6----|--7----4--6--7----4--6--|
-------6----------------|------------------------|------------------------|
------------------------|------------------------|------------------------|
------------------------|------------------------|------------------------|
------------------------|------------------------|------------------------|
------------------------|------------------------|------------------------|


  E  E  E  E  Q    Q       H         H            H         H         
--7--6--4--6--7----9----|-----------15--------|--14--------16--------|
------------------------|---------------------|----------------------|
------------------------|---------------------|----------------------|
------------------------|---------------------|----------------------|
------------------------|---------------------|----------------------|
------------------------|---------------------|----------------------|


  H         H            H         H           H         H         
-----------15--------|--15--------14--------|-----------15--------|
---------------------|----------------------|---------------------|
---------------------|----------------------|---------------------|
---------------------|----------------------|---------------------|
---------------------|----------------------|---------------------|
---------------------|----------------------|---------------------|


   H         H            W                   W                  
--14--------16--------|--15----------------|--L----------------||
----------------------|--------------------|-------------------||
----------------------|--------------------|-------------------||
----------------------|--------------------|-------------------||
----------------------|--------------------|-------------------||
----------------------|--------------------|-------------------||




Duration Legend
---------------
W - whole
H - half
Q - quarter
E - 8th
S - 16th
T - 32nd
X - 64th
. - note dotted
|-n-|  - n-tuplets


Tablature Legend
----------------
L - tied note
x - dead note
g - grace note
(n) - ghost note
> - accentuded note
NH - natural harmonic
AH - artificial harmonic
TH - tapped harmonic
SH - semi harmonic
PH - pitch harmonic
h - hammer on
p - pull off
b - bend
br - bendRelease
pb - preBend
pbr - preBendRelease
brb - bendReleaseBend
\n/ - tremolo bar dip
\n - tremolo bar dive
-/n - tremolo bar Release up
/n\ - tremolo bar inverted dip
/n - tremolo bar return
-\n - tremolo bar Release down
S - shift slide
s - legato slide
/ -  slide into from below or out of upwards
\ -  slide into from above or out of downwards
~ - vibrato
W - wide vibrato
tr - trill
TP - tremolo picking
T - tapping
S - slap
P - pop
< - fade in
^ - brush up
v - brush down

Login or Register to remove this ad.