Ads

Still More Fighting (Final Fantasy VII) Bass Tab

Submitted: Nov 17, 2008 by auriplane (Last updated: Apr 30, 2014)

5
Average: 5 (2 votes)
Download | Listen
Game: Final Fantasy VII
Composer(s): Nobuo Uematsu
Style: Transcription
Series: Final Fantasy

AutoScroll: Slow | Medium | Fast
              Final Fantasy 7 - Still More Fighting BASS TAB
                          Song by Nobuo Uematsu

                  Tabbed by auriplane ([email protected])


Four-string bass, standard tuning.  This was one of my earlier tabs, and it
had some mistakes; I've gone back and updated it, checking against just the
bass part of the PSF (I turned off all the other tracks in AudioOverload),
and there were still a couple wrong notes.  D'oh!  I also rewrote it with 
an eighth-note triplet feel.  Hopefully this should be accurate :-)


    Part A

   W                                    Q        Q        Q        Q  
G |------------------------------------|------------------------------------|
D |------------------------------------|------------------------------------|
A |12----------------------------------|------------------10-------11-------| 
E |------------------------------------|---------12-------------------------|
                                                                   
                                                          |--3--|         
   W                                    H                 E  E  E  E     E
G |------------------------------------|------------------------------------|
D |------------------------------------|---------------------------13----12-|
A |12----------------------------------|------------------10-11-12----------| 
E |------------------------------------|------------------------------------|
                                                                    
   W                                    Q        Q        Q        Q  
G |------------------------------------|------------------------------------|
D |10----------------------------------|------------------8--------9--------|
A |------------------------------------|---------10-------------------------| 
E |------------------------------------|------------------------------------|
                                                                            
                                                          |--3--|  |--3--|         
   W                                    H                 E  E  E  E  E  E
G |------------------------------------|------------------------------------|
D |10----------------------------------|------------------9--10-10-10-9--8--|
A |------------------------------------|------------------------------------| 
E |------------------------------------|------------------------------------|
                                                  
    Part B
                          
   |--3--|  |--3--|  |--3--|  |--3--|   |--3--|  |--3--|  |--3--|  |--3--|         
   E  E  E  E  E  E  E  E  E  E  E  E   E  E  E  E  E  E  E  E  E  E  E  E   
G |------------------------------------|------------------------------------|
D |------------------------------------|------------------------------------|
A |10h11-12-12-12-12-12-12-12-12-12-12-|10h11-12-12-12-12-12-12-12-12-12-12-|
E |------------------------------------|------------------------------------|

   |--3--|  |--3--|  |--3--|  |--3--|   |--3--|  |--3--|           |--3--|         
   E  E  E  E  E  E  E  E  E  E  E  E   E  E  E  E  E  E  E     E  E  E  E   
G |------------------------------------|------------------------------------|
D |------------------------------------|14-------12-------10----------------|
A |10h11-12-12-12-12-12-12-12-12-12-12-|---12-12----12-12-------12-10-11-12-|
E |------------------------------------|------------------------------------|

   |--3--|  |--3--|  |--3--|  |--3--|   |--3--|  |--3--|  |--3--|  |--3--|         
   E  E  E  E  E  E  E  E  E  E  E  E   E  E  E  E  E  E  E  E  E  E  E  E   
G |------------------------------------|------------------------------------|
D |8h-9--10-10-10-10-10-10-10-10-10-10-|8h-9--10-10-10-10-10-10-10-10-10-10-|
A |------------------------------------|------------------------------------|
E |------------------------------------|------------------------------------|

   |--3--|  |--3--|  |--3--|  |--3--|   |--3--|  |--3--|           |--3--|         
   E  E  E  E  E  E  E  E  E  E  E  E   E  E  E  E  E  E  E     E  E  E  E   
G |------------------------------------|12-------10-------8-----------------|
D |8h-9--10-10-10-10-10-10-10-10-10-10-|---10-10----10-10-------10-10-9--8--|
A |------------------------------------|------------------------------------|
E |------------------------------------|------------------------------------|

    Part C  (Repeat 2x)

            |--3--|                              |--3--|                        
   E     E  E  E  E  Q        Q         E     E  E  E  E  Q        E     E   
G |---------------7--9-----------------|---------------------------7--------|
D |7-----7--9--10-------------9--------|10----10-10-9--7--------------------|
A |------------------------------------|------------------10-------------10-|
E |------------------------------------|------------------------------------|


   E     E  E     E  E     E  E     E   E     E  E     E  E     E  E     E   
G |------------------------------------|------------------------------------|
D |------------------------------------|7-----7--7-----7--6-----6--6-----6--|
A |8-----8--8-----8--8-----8--10----10-|------------------------------------|
E |------------------------------------|------------------------------------|


   E     E  E     E  E     E  E     E   E     E  E     E  E     E  E     E   
G |------------------------------------|------------------------------------|
D |7-----7--7-----7--7-----7--7-----7--|7-----7--7-----7--7-----7--7-----7--|
A |------------------------------------|------------------------------------|
E |------------------------------------|------------------------------------|

    Part D  (Repeat 2x)

            |--3--|                              |--3--|           |--3--|              
   E     E  E  E  E  E     E  Q         E     E  E  E  E  E     E  E  E  E   
G |------------------------------------|---------------------------7--8--9--|
D |7-----7-----5--6--7-----7-----------|7-----7-----5--6--7-----7-----------|
A |---------7--------------------------|---------7--------------------------|
E |------------------------------------|------------------------------------|
                           
            |--3--|                              |--3--|  |-----3-----|              
   E     E  E  E  E  E     E  Q         E     E  E  E  E  Q     Q     Q      
G |------------------------------------|------------------------------------|
D |7-----7-----5--6--7-----7-----------|7-----7-----5--6--7-----------7-----|
A |---------7--------------------------|---------7--------------7-----------|
E |------------------------------------|------------------------------------|

    Part E
                              |--3--|                              |--3--|  
   E     E  E     E  E     E  E  E  E   E     E  E     E  E     E  E  E  E   
G |------------------------------------|------------------------------------|
D |---------------------------7--8--9--|10----10-10----10-10----10-10-------|
A |10----10-10----10-10----10----------|------------------------------8--9--|
E |------------------------------------|------------------------------------|

                              |--3--|                       
   E     E  E     E  E     E  E  E  E   E     E  E     E  E     E  E     E   
G |------------------------------------|------------------------------------|
D |---------------------------7--8--9--|10----10-10----10-10----10-10----10-|
A |10----10-10----10-10----10----------|------------------------------------|
E |------------------------------------|------------------------------------|

                              |--3--|                              |--3--|  
   E     E  E     E  E     E  E  E  E   E     E  E     E  E     E  E  E  E   
G |------------------------------------|------------------------------------|
D |---------------------------9--10-11-|12----12-12----12-12----12-12-------|
A |12----12-12----12-12----12----------|------------------------------10-11-|
E |------------------------------------|------------------------------------|

   E     E  E     E  E     E  E     E   E     E  E     E  E     E  E     E   
G |------------------------------------|------------------------------------|
D |------------------------------------|------------------------------------|
A |12----12-12----12-12----12-12----12-|13----13-13----13-13----13-13----13-|
E |------------------------------------|------------------------------------|

    Part F  (Repeat 2x)

   E     E  E     E  E     E  E     E   E     E  E     E  E     E  E     E   
G |------------------------------------|------------------------------------|
D |12----12-12----12-12----12-10----10-|12----12-12----12-12----12-10----10-|
A |------------------------------------|------------------------------------|
E |------------------------------------|------------------------------------|

                                                                   |--3--|  
   E     E  E     E  E     E  E     E   Q        Q        Q        E  E  E   
G |------------------------------------|------------------------------------|
D |12----12-12----12-12----12-10----10-|12----------------10-------9--------|
A |------------------------------------|---------12-------------------12-10-|
E |------------------------------------|------------------------------------|


   E     E  E     E  E     E  E     E   E     E  E     E  E     E  E     E   
G |------------------------------------|------------------------------------|
D |------------------------------------|------------------14-------14-------|
A |12----12-12----12-12----12-12----12-|12----12-12----12-------12-------11-|
E |------------------------------------|------------------------------------|

                                                          |--3--|  |--3--|  
   E     E  E     E  E     E  E     E   E     E  E     E  E  E  E  E  E  E   
G |------------------------------------|---------------------8--9--12-------|
D |------------------------------------|------------------------------10-11-|
A |12----12-12----12-12----12-12----12-|12----12-12----12-12----------------|
E |------------------------------------|------------------------------------|

    Part G

   E     E  E     E  E     E  E     E   E     E  E     E  E     E  E     E   
G |------------------------------------|------------------------------------|
D |12----12-12----12-12----12-10----10-|12----12-12----12-12----12-10----10-|
A |------------------------------------|------------------------------------|
E |------------------------------------|------------------------------------|

                                                                   |--3--|  
   E     E  E     E  E     E  E     E   Q        Q        Q        E  E  E   
G |------------------------------------|------------------------------------|
D |12----12-12----12-12----12-10----10-|12----------------10-------9--------|
A |------------------------------------|---------12-------------------12-10-|
E |------------------------------------|------------------------------------|


   E     E  E     E  E     E  E     E   E     E  E     E  E     E  E     E   
G |------------------------------------|------------------------------------|
D |------------------------------------|------------------14-------14-------|
A |12----12-12----12-12----12-12----12-|12----12-12----12-------12-------14-|
E |------------------------------------|------------------------------------|


   E     E  E     E  E     E  E     E   E     E  E     E  E     E  E     E   
G |------------------------------------|------------------------------------|
D |------------------------------------|------------------14----14----------|
A |15----15-15----15-15----15-15----15-|14----14-14----14----------11----11-|
E |------------------------------------|------------------------------------|

    Repeat back to Part A.
                                                                  
Login or Register to remove this ad.

1 comment on Still More Fighting

Beautiful!

5

According to my listening (link), it sounds like great job! I look forward to having a bass and try this tab!