Ads

Jenova Absolute (Final Fantasy VII) Guitar Tab

Submitted: Aug 24, 2008 by superubercool

5
Average: 5 (2 votes)
Download | Listen
Game: Final Fantasy VII
Composer(s): Nobuo Uematsu
Style: 2 or more instruments, Transcription
Series: Final Fantasy

AutoScroll: Slow | Medium | Fast
#----------------------------------PLEASE NOTE---------------------------------#
#This file is the author's own work and represents their interpretation of the #
#song. You may only use this file for private study, scholarship, or research. #
#------------------------------------------------------------------------------#

FINAL FANTASY VII - JENOVA ABSOLUTE
As recorded by Nobuo Uematsu
(From the 1998 Boxset FFVII OST)
Transcribed by Tyler Richardson
Music by Nobuo Uematsu

This song is actually kind of simple. 
Except the hammer on's are kind of tricky.
Enjoy!
 

Bb
x 1 3 3 3 x Fm
1 3 3 1 1 1 Ab
4 6 6 5 4 4 Gm
3 5 5 3 3 3 
Absus4
x x 6 6 4 4 Absus4/A
x x 7 6 4 4 Absus4/F
x x 3 1 2 x Bbsus4/G
x x 5 3 4 x 
Ab6
x x x 1 1 1 Db
x 4 6 6 6 x Db/F
x 8 6 6 6 x Bbsus4/E
x x 2 3 4 x 
Bbsus4/Eb
x x 1 3 4 x Cm
x 3 5 5 4 3 


Gtr I (E A D G B E) - 'Piano 1'
Gtr II (E A D G B E) - 'Piano 2'


 Melody 1
  Moderately Fast Q=92
  Fm
 6/8
  Gtr I
|-----------------|------------------------------11h13-|
|-----------------|------------11-------11h13-11-------|
|-----3-0h1---0---|---10h12h13----12h13----------------|
|-----------3---1-|------------------------------------|
|-----------------|------------------------------------|
|-----------------|------------------------------------|
|
| Gtr II
|-1-1-1-----1-3h4-|-------------------------------9p=8-|
|-----------------|-6--------6--------6--------6-------|
|-----------------|------------------------------------|
|-----------------|------------------------------------|
|-----------------|------------------------------------|
|-----------------|------------------------------------|


|-----------------|------------------------------11h13--|
|-----------------|------------11-------11h13-11--------|
|-----3-0h1---0---|---10h12h13----12h13-----------------|
|-----------3---1-|-------------------------------------|
|-----------------|-------------------------------------|
|-----------------|-------------------------------------|
|
|-----------------|-------------------------------------|
|-6-6-6-----6-8-9-|-6--------6--------6--------6--4h=5--|
|-----------------|-------------------------------------|
|-----------------|-------------------------------------|
|-----------------|-------------------------------------|
|-----------------|-------------------------------------|


  Fm
|-----------------|------------------------------11h13-|
|-----------------|------------11-------11h13-11-------|
|-----3-0h1---0---|---10h12h13----12h13----------------|
|-----------3---1-|------------------------------------|
|-----------------|------------------------------------|
|-----------------|------------------------------------|
|
|-----------------|------------------------------------|
|-------------1---|-------------------------------2p=1-|
|---------3-------|------------------------------------|
|-3-3-3-----------|-3--------3--------3--------3-------|
|-----------------|------------------------------------|
|-----------------|------------------------------------|


|-----------------|------------------------------11h13---||
|-----------------|------------11-------11h13-11---------||
|-----3-0h1---0---|---10h12h13----12h13------------------||
|-----------3---1-|--------------------------------------||
|-----------------|--------------------------------------||
|-----------------|--------------------------------------||
|
|-----------------|--------------------------------------||
|-------------1---|--------------------------------------||
|---------3-------|--------------------------------------||
|-3-3-3-----------|-3--------3--------3--------3--1h=2---||
|-----------------|--------------------------------------||
|-----------------|--------------------------------------||


 Melody 2
  Fm           Ab  Gm        Fm           Bb
|------------|-------------|------------|-------------|
|------------|-1-----------|-4----------|-3-----------|
|------------|-1---3-------|-5----------|-3-----------|
|-3----------|-----5-------|------------|-------------|
|-3----------|-------------|------------|-------------|
|------------|-------------|------------|-------------|
|
|------------|-------------|------------|-------------|
|---------1--|---------2p1-|---------1--|-------------|
|-------3----|-------------|-------3----|-------------|
|-3-3-3------|-3-3-3-3-----|-3-3-3------|-3-3-3-3-1h2-|
|------------|-------------|------------|-------------|
|------------|-------------|------------|-------------|


  Ab                           Fm
|------------|---------------|-1-1--------------|
|-1----------|-(1)-----------|------------------|
|-1----------|-(1)-----------|------3-0h1---0---|
|------------|---------------|------------3---1-|
|------------|---------------|------------------|
|------------|---------------|------------------|
|
|------------|---------------|------------------|
|---------1--|-----------2p1-|--------------1---|
|-------3----|---------------|----------3-------|
|-3-3-3------|--3--3-3-3-----|-3-3--3-----------|
|------------|---------------|------------------|
|------------|---------------|------------------|


|------------------------------11h13-|
|------------11-------11h13-11-------|
|---10h12h13----12h13----------------|
|------------------------------------|
|------------------------------------|
|------------------------------------|
|
|------------------------------------|
|-------------------------------2p=1-|
|------------------------------------|
|-3--------3--------3--------3-------|
|------------------------------------|
|------------------------------------|


  Fm           Ab  Gm        Fm           Bb
|------------|-------------|------------|-------------|
|------------|-1-----------|-4----------|-3-----------|
|------------|-1---3-------|-5----------|-3-----------|
|-3----------|-----5-------|------------|-------------|
|-3----------|-------------|------------|-------------|
|------------|-------------|------------|-------------|
|
|------------|-------------|------------|-------------|
|---------1--|---------2p1-|---------1--|-------------|
|-------3----|-------------|-------3----|-------------|
|-3-3-3------|-3-3-3-3-----|-3-3-3------|-3-3-3-3-1h2-|
|------------|-------------|------------|-------------|
|------------|-------------|------------|-------------|


  Ab                           Fm
|------------|---------------|-1-1--------------|
|-1----------|-(1)-----------|------------------|
|-1----------|-(1)-----------|------3-0h1---0---|
|------------|---------------|------------3---1-|
|------------|---------------|------------------|
|------------|---------------|------------------|
|
|------------|---------------|------------------|
|---------1--|-----------2p1-|--------------1---|
|-------3----|---------------|----------3-------|
|-3-3-3------|--3--3-3-3-----|-3-3--3-----------|
|------------|---------------|------------------|
|------------|---------------|------------------|


|------------------------------11h13-|
|------------11-------11h13-11-------|
|---10h12h13----12h13----------------|
|------------------------------------|
|------------------------------------|
|------------------------------------|
|
|------------------------------------|
|-------------------------------2p=1-|
|------------------------------------|
|-3--------3--------3--------3-------|
|------------------------------------|
|------------------------------------|


  Db           Bb  Db      Fm
|------------|-----------|------------|---------------|
|------------|-----------|------------|---------------|
|------------|-3---------|------------|---------------|
|-3----------|-3---6-----|-3----------|-(3)-----------|
|-4----------|-----4-----|-3----------|-(3)-----------|
|------------|-----------|------------|---------------|
|
|------------|-----------|------------|---------------|
|-------2p1--|-----------|---------1--|---------------|
|------------|-3-3-3-3-3-|-------3----|---------------|
|------------|-----------|-3-3-3------|--3--3-3-3-1h2-|
|-4-4-4------|-----------|------------|---------------|
|------------|-----------|------------|---------------|


  Db           Db/F        Fm
|------------|-----------|------------|---------------|
|------------|-----------|------------|---------------|
|------------|-6---5-----|------------|---------------|
|-3----------|-3---3-----|-3----------|-(3)-----------|
|-4----------|-----------|-3----------|-(3)-----------|
|------------|-----------|------------|---------------|
|
|------------|-----------|------------|---------------|
|-------2p1--|-----------|---------1--|---------------|
|------------|-3-3-3-3-3-|-------3----|---------------|
|------------|-----------|-3-3-3------|--3--3-3-3-1h2-|
|-4-4-4------|-----------|------------|---------------|
|------------|-----------|------------|---------------|


  Fm
|-----------------|------------------------------11h13-|
|-----------------|------------11-------11h13-11-------|
|-----3-0h1---0---|---10h12h13----12h13----------------|
|-----------3---1-|------------------------------------|
|-----------------|------------------------------------|
|-----------------|------------------------------------|
|
|-----------------|------------------------------------|
|-------------1---|-------------------------------2p=1-|
|---------3-------|------------------------------------|
|-3-3-3-----------|-3--------3--------3--------3-------|
|-----------------|------------------------------------|
|-----------------|------------------------------------|


|-----------------|------------------------------11h13---||
|-----------------|------------11-------11h13-11---------||
|-----3-0h1---0---|---10h12h13----12h13------------------||
|-----------3---1-|--------------------------------------||
|-----------------|--------------------------------------||
|-----------------|--------------------------------------||
|
|-----------------|--------------------------------------||
|-------------1---|--------------------------------------||
|---------3-------|--------------------------------------||
|-3-3-3-----------|-3--------3--------3--------3--1h=2---||
|-----------------|--------------------------------------||
|-----------------|--------------------------------------||


 Melody 3
  Fm                         Ab           Gm
|--------------------------|---------------------------|
|--------------------------|---------------------------|
|-10-----------------------|-13-----------12-----------|
|-10-----------------------|-13-----------12-----------|
|--------------------------|---------------------------|
|--------------------------|---------------------------|
|
|--------------------------|---------------------------|
|--------------------------|-----------------------2p1-|
|----0h1---0h1-3p1p0---0h1-|----0h1---0h1--3p1p0-------|
|--3-----3-----------3-----|--3-----3------------3-----|
|--------------------------|---------------------------|
|--------------------------|---------------------------|


  Fm                         Fm
|--------------------------|----------------------------|
|--------------------------|----------------------------|
|-10-----------------------|-10-------------------------|
|-10-----------------------|-10-------------------------|
|--------------------------|----------------------------|
|--------------------------|----------------------------|
|
|--------------------------|----------------------------|
|--------------------------|----------------------2p1---|
|----0h1---0h1-3p1p0---0h1-|----0h1---0h1-3p1p0---------|
|--3-----3-----------3-----|--3-----3-----------3-------|
|--------------------------|----------------------------|
|--------------------------|----------------------------|


  Fm                                        Absus4/A
|-------------------------|-----------------4---4---|
|-------------------------|-----------------4---4---|
|-------------------------|-----------------6---6---|
|---3-3---3-3---3-1-------|---3-3---3-3---3-7---6---|
|---3-3---3-3---3-2---3---|---3-3---3-3---3---------|
|---------------------4---|-------------------------|
|
|-------------------------|-------------------------|
|-------------------------|---------------------2p1-|
|---0h1---0h1-3p1p0---0h1-|---0h1---0h1-3p1p0-------|
|-3-----3-----------3-----|-3-----3-----------3-----|
|-------------------------|-------------------------|
|-------------------------|-------------------------|


    Fm                                          Absus4
|-------------------------|-----------------4---4-----|
|-------------------------|-----------------4---4-----|
|-------------------------|-----------------6---6-----|
|---3-3---3-3---3-1-------|---3-3---3-3---3-7---6-----|
|---3-3---3-3---3-2---3---|---3-3---3-3---3-----------|
|---------------------4---|---------------------------|
|
|-------------------------|---------------------------|
|-------------------------|---------------------2p1---|
|---0h1---0h1-3p1p0---0h1-|---0h1---0h1-3p1p0---------|
|-3-----3-----------3-----|-3-----3-----------3-------|
|-------------------------|---------------------------|
|-------------------------|---------------------------|


  Cm                                        Bbsus4/E
|-------------------------|-------------------------|
|-------------------------|-----------------4---4---|
|---5-5---5-5-3p1p0---0h1-|---5-5---5-5---5-3---3---|
|---5-5---5-5-------3-----|---5-5---5-5---5-2---1---|
|-------------------------|-------------------------|
|-------------------------|-------------------------|
|
|-------------------------|-------------------------|
|-------------------------|-------------------------|
|-------------------------|---------------------1p0-|
|---0h1---0h1-3p1p0---0h1-|---0h1---0h1-3p1p0-------|
|-3-----3-----------3-----|-3-----3-----------3-----|
|-------------------------|-------------------------|


    Cm
|-------------------------|---------------------------|
|-------------------------|-----4---------------------|
|---5-5---5-5-3p1p0---0h1-|-5-------7---6-------------|
|---5-5---5-5-------3-----|-----5-----------6---3-----|
|-------------------------|-6-------9---8---4---------|
|-------------------------|---------------------4-----|
|
|-------------------------|---------------------------|
|-------------------------|---------------------------|
|-------------------------|---5---8---7---6-----------|
|---0h1---0h1-3p1p0---0h1-|-------------------6---3---|
|-3-----3-----------3-----|-3---6---5---4-------------|
|-------------------------|-----------------4---1-----|


  Fm                                            Absus4
|-------------------------|-----------------4---4---|
|-------------------------|-----------------4---4---|
|-------------------------|-----------------6---6---|
|---3-3---3-3---3-1-------|---3-3---3-3---3-7---6---|
|---3-3---3-3---3-2---3---|---3-3---3-3---3---------|
|---------------------4---|-------------------------|
|
|-------------------------|-------------------------|
|-------------------------|---------------------2p1-|
|---0h1---0h1-3p1p0---0h1-|---0h1---0h1-3p1p0-------|
|-3-----3-----------3-----|-3-----3-----------3-----|
|-------------------------|-------------------------|
|-------------------------|-------------------------|


                                            Absus4/A
|-------------------------|-----------------4---4-----||
|-------------------------|-----------------4---4-----||
|-------------------------|-----------------6---6-----||
|---3-3---3-3---3-1-------|---3-3---3-3---3-7---6-----||
|---3-3---3-3---3-2---3---|---3-3---3-3---3-----------||
|---------------------4---|---------------------------||
|
|-------------------------|---------------------------||
|-------------------------|---------------------2p1---||
|---0h1---0h1-3p1p0---0h1-|---0h1---0h1-3p1p0---------||
|-3-----3-----------3-----|-3-----3-----------3-------||
|-------------------------|---------------------------||
|-------------------------|---------------------------||


 Melody 4
  Absus4/F                  Bbsus4/G
|-------------------------|-------------------------|
|-2-----------------------|-4-----------------------|
|-1-----------------------|-3-----------------------|
|-3-----------------------|-5-----------------------|
|-------------------------|-------------------------|
|-------------------------|-------------------------|
|
|-------------------------|-------------------------|
|-------------------------|---------------------2p1-|
|---0h1---0h1-3p1p0---0h1-|---0h1---0h1-3p1p0-------|
|-3-----3-----------3-----|-3-----3-----------3-----|
|-------------------------|-------------------------|
|-------------------------|-------------------------|


  Ab6
|-1-----------------------|-(1)-------------------------|
|-1-----------------------|-(1)-------------------------|
|-1-----------------------|-(1)-------------------------|
|-------------------------|-----------------------------|
|-------------------------|-----------------------------|
|-------------------------|-----------------------------|
|
|-------------------------|-----------------------------|
|-------------------------|-----------------------2p1---|
|---0h1---0h1-3p1p0---0h1-|-----0h1---0h1-3p1p0---------|
|-3-----3-----------3-----|--3------3-----------3-------|
|-------------------------|-----------------------------|
|-------------------------|-----------------------------|


  Absus4/F                  Bbsus4/G
|-------------------------|-------------------------|
|-2-----------------------|-4-----------------------|
|-1-----------------------|-3-----------------------|
|-3-----------------------|-5-----------------------|
|-------------------------|-------------------------|
|-------------------------|-------------------------|
|
|-------------------------|-------------------------|
|-------------------------|---------------------2p1-|
|---0h1---0h1-3p1p0---0h1-|---0h1---0h1-3p1p0-------|
|-3-----3-----------3-----|-3-----3-----------3-----|
|-------------------------|-------------------------|
|-------------------------|-------------------------|


  Ab6
|-1-----------------------|-(1)-------------------------|
|-1-----------------------|-(1)-------------------------|
|-1-----------------------|-(1)-------------------------|
|-------------------------|-----------------------------|
|-------------------------|-----------------------------|
|-------------------------|-----------------------------|
|
|-------------------------|-----------------------------|
|-------------------------|-----------------------2p1---|
|---0h1---0h1-3p1p0---0h1-|-----0h1---0h1-3p1p0---------|
|-3-----3-----------3-----|--3------3-----------3-------|
|-------------------------|-----------------------------|
|-------------------------|-----------------------------|


  N.C.
|------------|------*|
|------------|------*|
|------------|------*|
|------------|------*|
|------------|------*|
|------------|------*|
|
|------------|------*|
|------------|------*|
|------------|------*|
|-3-3-3-3-3--|------*|
|------------|------*|
|------------|-1----*|




--------------------------------------------------------------------------------


Tablature Legend
----------------
 h   - hammer-on
 p   - pull-off
 b   - bend
 pb  - pre-bend
 r   - bend release (if no number after the r, then release immediately)
 /\  - slide into or out of (from/to "nowhere")
 s   - legato slide
 S   - shift slide
 - natural harmonic
[n]  - artificial harmonic
n(n) - tapped harmonic
 ~   - vibrato
 tr  - trill
 T   - tap
 TP  - trem. picking
 PM  - palm muting
\n/  - tremolo bar dip; n = amount to dip
 \n  - tremolo bar down
 n/  - tremolo bar up
/n\  - tremolo bar inverted dip
 =   - hold bend; also acts as connecting device for hammers/pulls
 <> - volume swell (louder/softer)
 x   - on rhythm slash represents muted slash
 o   - on rhythm slash represents single note slash

Misc Legend
-----------
 |  - bar
||  - double bar
||o - repeat start
o|| - repeat end
*|  - double bar (ending)
 :  - bar (freetime)
 $  - Segno
 &  - Coda
Tempo markers -  = BPM(8/16=s8/s16), where s8 = swing 8ths, s16 = swing 16ths
Login or Register to remove this ad.