Ads

Farmboy (Final Fantasy VII) Guitar Tab

Submitted: Feb 27, 2009 by laoise (Last updated: Jan 15, 2010)

5
Average: 5 (2 votes)
Download | Listen
Game: Final Fantasy VII
Composer(s): Nobuo Uematsu
Style: 2 or more instruments, Transcription
Series: Final Fantasy

AutoScroll: Slow | Medium | Fast
#----------------------------------PLEASE NOTE---------------------------------#
#This file is the author's own work and represents their interpretation of the #
#song. You may only use this file for private study, scholarship, or research. #
#------------------------------------------------------------------------------##

Name of song: Farmboy
Name of game: Final Fantasy 7
Composer of song: Nobuo Uematsu
Name of tabber: Laoise Earle
Date tab was made: 24/02/09


  Q=110
  Gtr I
  W      E E E E E E   E E E E E E   E E E E E E   E E E E E E   E E E E E E
|------|-----2---2---|-------------|-----3---3---|-----3---3---|-----2---2---|
|------|-----3---3---|-----5---5---|-----0---0---|-----0---0---|-----3---3---|
|------|---2---2---2-|-----5---5---|---0---0---0-|---0---0---0-|---2---2---2-|
|------|-0-----------|---5---5---5-|-------------|-------------|-0-----------|
|------|-------------|-3-----------|-------------|-------------|-------------|
|------|-------------|-------------|-3-----------|-3-----------|-------------|


| E E E E E E   E E E E E E   E E E E E E
|-------------|-----3---3---|-----3---3---|
|-----5---5---|-----0---0---|-----0---0---|
|-----5---5---|---0---0---0-|---0---0---0-|
|---5---5---5-|-------------|-------------|
|-3-----------|-------------|-------------|
|-------------|-3-----------|-3-----------|

 
| E E E E E E   E E E  E E E   E E E E E E
|-----3---3---|-----3----3---|-------------|
|-----0---0---|-----0----0---|-----5---5---|
|---0---0---0-|---0----0---0-|-----5---5---|
|-------------|--------------|---5---5---5-|
|-------------|--------------|-3-----------|
|-3-----------|-1------------|-------------|


 
| E  E E E E E   E E E E E E   E  E E E E E
|--------------|-----3---3---|--------------|
|------5---5---|-----0---0---|------5---5---|
|------6---6---|---0---0---0-|------4---4---|
|----5---5---5-|-------------|----5---5---5-|
|-0------------|-------------|--------------|
|--------------|-3-----------|-0------------|



| E E E E E E   E  E E E E E   E E E E E E
|-------------|--------------|-----3---3---|
|-----5---5---|------7---7---|-----0---0---|
|-----5---5---|------5---5---|---0---0---0-|
|---7---7---7-|----7---7---7-|-------------|
|-0-----------|-5------------|-------------|
|-------------|--------------|-3-----------|



| E  E E E E E   E  E E E E E   E  E E E E E
|------3---3---|--------------|--------------|
|------0---0---|------5---5---|------5---5---|
|----0---0---0-|------5---5---|------6---6---|
|--------------|----5---5---5-|----5---5---5-|
|--------------|-3------------|-0------------|
|-1------------|--------------|--------------|



| E E E E E E   E  E E E E E   E  E E E E E
|-----3---3---|--------------|------3---3---|
|-----0---0---|------5---5---|------0---0---|
|---0---0---0-|------5---5---|----0---0---0-|
|-------------|----5---5---5-|--------------|
|-------------|-3------------|--------------|
|-3-----------|--------------|-3------------|



|  E  E E E E E   E E E E E E   E E E  E E E
|-------3---3---|-----3---3---|-----3----3---|
|-------0---0---|-----0---0---|-----0----0---|
|-----0---0---0-|---0---0---0-|---0----0---0-|
|---------------|-------------|--------------|
|---------------|-------------|--------------|
|--3------------|-3-----------|-1------------|



| E  E E E E E    E  E E E E E   E E E E E E
|--------------|---------------|-----3---3---|
|------5---5---|-------5---5---|-----4---4---|
|------5---5---|-------5---5---|---5---5---5-|
|----5---5---5-|-----5---5---5-|-------------|
|-3------------|--3------------|-0-----------|
|--------------|---------------|-------------|



| E E E  E E E   E E E  E E E   E  E E E E E
|-----2----2---|-----3----3---|------3---3---|
|-----1----1---|-----0----0---|------0---0---|
|---2----2---2-|---0----0---0-|----0---0---0-|
|-0------------|--------------|--------------|
|--------------|--------------|--------------|
|--------------|-3------------|-3------------|



| E  E E E E E   E E E  E E E   E E E E E E
|--------------|--------------|-------------|
|------5---5---|-----7----7---|-----5---5---|
|------4---4---|-----7----7---|-----4---4---|
|----5---5---5-|---9----9---9-|---5---5---5-|
|--------------|--------------|-------------|
|-0------------|-7------------|-0-----------|



| E E E E E E   E  E E E E E   E  E E E E E
|-------------|--------------|--------------|
|-----7---7---|------5---5---|------5---5---|
|-----7---7---|------5---5---|------6---6---|
|---9---9---9-|----5---5---5-|----5---5---5-|
|-------------|-3------------|-0------------|
|-7-----------|--------------|--------------|



| E  E E E E E    E  E E E E E   E E E E E E
|--------------|---------------|-----3---3---|
|------8---8---|-------7---7---|-----0---0---|
|------5---5---|-------5---5---|---0---0---0-|
|----7---7---7-|-----7---7---7-|-------------|
|-5------------|--5------------|-------------|
|--------------|---------------|-3-----------|


  
| E  E E E E E   E  E E E E E   E  E E E E E
|------3---3---|--------------|--------------|
|------0---0---|------5---5---|------5---5---|
|----0---0---0-|------5---5---|------6---6---|
|--------------|----5---5---5-|----5---5---5-|
|--------------|-3------------|-0------------|
|-1------------|--------------|--------------|



| E E E E E E   E  E E E E E   E  E E E E E
|-----3---3---|--------------|------3---3---|
|-----0---0---|------5---5---|------0---0---|
|---0---0---0-|------5---5---|----0---0---0-|
|-------------|----5---5---5-|--------------|
|-------------|-3------------|--------------|
|-3-----------|--------------|-3------------|


 
|  E  E E E E E
|-------3---3------*|
|-------0---0------*|
|-----0---0---0----*|
|------------------*|
|------------------*|
|--3---------------*|


Duration Legend
---------------
W - whole 
H - half
Q - quarter
E - 8th
S - 16th
T - 32nd 
+ - note tied to previous

-----------------------------------------------------

  Gtr II

  W             W             Q   Q   Q
|-------------|-------------|-------------|
|-------------|-------------|-------------|
|-------------|-------------|-------------|
|-------------|-------------|---------0---|
|-------------|-------------|-------------|
|-------------|-------------|-------------|

 Q   Q   Q     Q   Q.     E   Q   Q   Q
|-------------|--------------|-------------|
|-------------|--------------|-------------|
|-0---0---2---|-4------------|-5---4-------|
|-------------|-----5--------|---------5---|
|-------------|------------5-|-------------|
|-------------|--------------|-------------|

 Q.     E E E   Q   Q   Q     Q.     E E E
|--------------|-------------|--------------|
|--------------|---------3---|--------------|
|-2------2-0-2-|-4---5-------|-0------0-2-4-|
|--------------|-------------|--------------|
|--------------|-------------|--------------|
|--------------|-------------|--------------|

  Q   Q   Q     Q.     E E E   Q   Q   Q
|-------------|--------------|-------------|
|-------------|--------------|-------------|
|-2---4---5---|--------------|-0---0---2---|
|-------------|-4------4-2-4-|-------------|
|-------------|--------------|-------------|
|-------------|--------------|-------------|

  Q.     E E E   Q.     E Q     Q.     E E E
|--------------|--------------|--------------|
|-0------0-----|--------------|--------------|
|----------0---|--------0-0---|-2------2-0-2-|
|------------0-|-2------------|--------------|
|--------------|--------------|--------------|
|--------------|--------------|--------------|

  Q   Q   Q     Q.     E E E   H.
|-------------|--------------|--------------|
|-------------|--------------|--------------|
|-4-----------|--------------|-0------------|
|-----5-------|-2------2-0-2-|--------------|
|---------5---|--------------|--------------|
|-------------|--------------|--------------|

  +H.             Q   Q   Q     Q   Q.     E
|---------------|-------------|-----0--------|
|---------------|-3-----------|------------3-|
|-(0)-----------|-----4-------|--------------|
|---------------|---------5---|-3------------|
|---------------|-------------|--------------|
|---------------|-------------|--------------|

  H.             +H.             Q   Q   Q
|--------------|---------------|-------------|
|-1------------|-(1)-----------|-1-----------|
|--------------|---------------|-----0-------|
|--------------|---------------|---------1---|
|--------------|---------------|-------------|
|--------------|---------------|-------------|

  Q   Q.     E   Q   Q.     E   H.
|--------------|--------------|--------------|
|-----3--------|-1---0--------|--------------|
|------------2-|------------2-|-4------------|
|-0------------|--------------|--------------|
|--------------|--------------|--------------|
|--------------|--------------|--------------|

  Q.     E E E   Q   Q.     E   Q   Q   E E
|------------0-|--------------|-------------|
|-0--------0---|-3------------|-0---0-------|
|--------2-----|-----4------2-|---------2-4-|
|--------------|--------------|-------------|
|--------------|--------------|-------------|
|--------------|--------------|-------------|

  Q   H         Q.     E E E   Q.     E E E
|-------------|--------------|--------------|
|-3-----------|-1------1-0---|--------0-----|
|-----4-------|------------2-|-4--------2-4-|
|-------------|--------------|--------------|
|-------------|--------------|--------------|
|-------------|--------------|--------------|

  H.             +H        Q     Q   Q   Q
|--------------|---------------|-------------|
|-3------------|-(3)-----------|-------------|
|--------------|---------------|-0---0---2---|
|--------------|-----------0---|-------------|
|--------------|---------------|-------------|
|--------------|---------------|-------------|

Q.     E E E   Q.     E Q     Q.     E E E
|--------------|--------------|--------------|
|--------------|--------------|--------------|
|-4------4-----|--------0-0---|-2------2-0-2-|
|----------5---|-2------------|--------------|
|------------5-|--------------|--------------|
|--------------|--------------|--------------|

  Q   Q   Q     Q.     E E E   H.
|-------------|--------------|--------------|
|-------------|--------------|--------------|
|-4-----------|--------------|-0------------|
|-----5---0---|-2------2-0-2-|--------------|
|-------------|--------------|--------------|
|-------------|--------------|--------------|

 +H.
|------------------*|
|------------------*|
|-(0)--------------*|
|------------------*|
|------------------*|
|------------------*|

Duration Legend
---------------
W - whole 
H - half
Q - quarter
E - 8th
S - 16th
T - 32nd 
+ - note tied to previous

Login or Register to remove this ad.

3 comments on Farmboy

this tab is awesome XD five

5

this tab is awesome XD
five stars

Thank You (:

Thank You (:

The first guitar part is

The first guitar part is good, but it can be made a TONNE* easier by changing the following chord formations, so that you never even have to go past the fourth fret:

 Old:        New:

x3555x ---> x3x010

x0565x ---> x0x020

0x545x ---> 0xx000

x0755x ---> x0x210

x5757x ---> xx0212

x5758x ---> xx0213

7x977x ---> x2x432

*British spelling for extra drama