Ramza's Theme (Final Fantasy Tactics) Guitar Tab

Submitted: Jul 23, 2008 by Krimson

4.8
Average: 4.8 (5 votes)
Download | Listen
Game: Final Fantasy Tactics
Composer(s): Hitoshi Sakimoto, Masaharu Iwata
Style: Transcription
Series: Final Fantasy

AutoScroll: Slow | Medium | Fast
Game: Final Fantasy Tactics (Ps1)
Composer/s: Hitoshi Sakimoto and Masaharu Iwata
Tabber: Krimson


e||-----------------------7-8--7----7-14-14--12--12-10-8-8----------
B||---7-8---7-8-10-8-7-8---------10---------------------------------
G||-9---------------------------------------------------------------
D||-----------------------------------------------------------------
A||-----------------------------------------------------------------
E||-----------------------------------------------------------------

e||-7----7-0-7---------5-7-0-7--------3-2-3--5-3-2--2----------0----
B||---10-------10----5---------10---------------------3-5----7------
G||----------------6---------------------------------------7--------
D||-----------------------------------------------------------------
A||-----------------------------------------------------------------
E||-----------------------------------------------------------------

A simple version of Ramza's theme from FFT.
Too lazy to add the timing, listen to the midi :P
Login or Register to remove this ad.

2 comments on Ramza's Theme

cool

4

fft needs more tabs here, one of the best games ever

can you do the opening theme?

can you do the opening theme? for guitar