Login or Register to remove this ad.

Town Theme (Final Fantasy Origins) Guitar Tab

Submitted: Oct 01, 2007 by Kabukibear (Last updated: Sep 15, 2009)

5
Average: 5 (6 votes)
Download | Listen
Game: Final Fantasy Origins
Composer(s): Nobuo Uematsu
Style: Arrangement, Fingerstyle
Series: Final Fantasy

AutoScroll: Slow | Medium | Fast
Town Theme
~Final Fantasy I Origins~
Composed By: Nobuo Uematsu
Arranged By: Justin Lincoln

Drop D Tuning

BPM=90

                    |--3--|
     E  E  E  E  E  S  S  S E  E     E  E  E  E  E  E  E  E
E||-----------0--L----------------|-----------3--L--------1--|
B||--------3--------3h-5p-3-------|--------1--------1--------|
G||-----0-------------------0-----|-----1--------------1-----|
D||----------------------------0--|--------------------------|
A||--3----------------------------|--3-----------------------|
D||-------------------------------|--------------------------|

          |--3--|                           |--3--|
    E  E  S  S  S E  E  E  E  E     E  S  S S  S  S E  E  E  E  E
|---0-----3----------------0--1--|--0------------------------------|
|--------------------3-----------|-----3----0h-1p-0----------0-----|
|*----------------0--------0-----|------------------0-----------0--|
|*-----0--0h-2p-0-------0-----0--|-----0h-2---------------0--------|
|---3----------------2-----------|--0------------------------------|
|--------------------------------|---------------------5-----------|

                             ^
  E  E  E  E  E  E  E  E     E  E  E  E  E  E  E  E
--5--------5--3-----0--1--|--0--------0--------0--4--|
--------6--------3--------|--3-----3--------0--------|
-----0--------------------|-----0--------1-----------|
--------------------------|--------------------------|
--------------------2-----|--3-----------------------|
--3-----------5-----------|--------------2-----------|

  ^           ^              ^
  E  E  E  E  E  E  E  E     E  E  E  E  E  E  E  E
--8--------8--8-----7--5--|--3-----0-----0-----------|
--5--5--8-----6-----6-----|--0--3-----6--------1-----|
--5-----------7--7--------|--0-----------0-----2-----|
--------------0-----------|--------------2-----2-----|
--0-----------------------|--------------3-----0-----|
--------------------------|--------5-----------------|

                                         ^
  E  E  E  E  E  E  E  E     E  E  E  E  Q    E  E
--------------------------|-------------------------|
--3--------------------3--|--------------0----1--3--|
--------0--------3--5-----|--5-----0-----0----------|
-----3-----3--------------|-----0-----7--0----------|
--1-----------------------|-------------------------|
--------------3-----------|--5-----------5----------|

        |--3--|                          |--3--|
  E  E  S  S  S E  E  E  E  E     E  S S S  S  S E  E  E  E  E
--0-----3----------------0--1--|--0-----------------------------|
-------------------3-----------|-----3---0h-1p-0----------0-----|
----------------0--------0-----|-----------------0-----------0--|
-----0--0h-2p-0-------0-----0--|-----0-2---------------0--------|
--3----------------2-----------|--0-----------------------------|
-------------------------------|--------------------5-----------|

                             ^
  E  E  E  E  E  E  E  E     E  E  E  E  S S S S S S S S
--5--------5--3-----0--1--|--0--------0----------0---4---|
--------6--------3--------|--3-----3---------0-----0---0-|
-----0--------------------|-----0----------1---1---------|
--------------------------|------------------------------|
--------------------2-----|--3---------------------------|
--3-----------5-----------|--------------2---------------|

  S S S S S S S S S S S S S S S S    S S S S S S S S E  E  E  E
--8-----------8---8-------7---5---|--3-------0---1---0-----------|
------5---8-----------6---------3-|------3-----------------1-----|
----5---5---5---5---7---7---7-----|----0---0---0---0-0-----2-----|
------------------0---------------|------------------2-----2-----|
--0-------------------------------|------------------3-----0-----|
----------------------------------|--5---------------------------|

                             1st Ending-------------,    2nd Ending-----------,
                                         ^                           ^
  E  E  E  E  E  E  E  E     E  E  E  E  Q    E  E       E  E  E  E  Q.     E
--------------------------|--------------------------||------------------------|
--3--------------------3--|--------------0----1--3---||--------------0------1--|
--------0--------3--5-----|--5-----0-----0----------*||--5-----0-----0---------|
-----3-----3--------------|-----0-----7--0----------*||-----0-----7--0---------|
--1-----------------------|--------------------------||------------------------|
--------------3-----------|--5-----------5-----------||--5-----------5---------|

                          ^
  E  E  E  E  H           W
--------------0--------|--3----------------||
--1--------1-----------|--1----------------||
--------0--------------|--0----------------||
-----2-----------------|--2----------------||
--3--------------------|--3----------------||
-----------------------|-------------------||

Duration Legend
---------------
W - whole
H - half
Q - quarter
E - 8th
S - 16th
T - 32nd
X - 64th
. - note dotted
|-n-|  - n-tuplets

Tablature Legend
----------------
L - tied note
h - hammer on
p - pull off
v - brush down
Login or Register to remove this ad.

10 comments on Town Theme

Man Kabuki. You make the

Man Kabuki. You make the best tabs. Lol

I'd almost say it's easier

I'd almost say it's easier to keep the standard tuning and take the stretches.

Haha, I was about to make a

Haha, I was about to make a similar comment, ron. I think Kabukibear has fallen a bit too in love with drop D. Great tab nonetheless.

I will almost always try to

I will almost always try to find away around a 1-5 stretch but I certainly don't think there's anything "hard" about this being in drop D. I think it's more you both hate alternate tunings lol.

Alternate tunings is to me

Alternate tunings is to me what stretching is to you I guess. lol.

I hate alternate tunings since (as you know) I mainly use these for performance. I always get really nervous when I have to tune in the middle of a performance and will avoid it whenever possible. I don't mind doing it for a big long piece or a set of pieces. But I'm loathe to do it for a short piece so in a case like this I'd just rather take the stretch. It's just a minor quibble of mine.

Yeah I figured that, which

Yeah I figured that, which is precisely the reason so many of my pieces ARE in drop D tuning. It's a tuning and sound I really like and in an effort to ease performances I purposely put a ton of my pieces in drop D. That way I don't have to retune. ;) But I understand your point.

Sadly, everytime I put it in

Sadly, everytime I put it in drop D then tune it back to standard the other strings seem to sound a bit off so I have to retune the entire guitar. Maybe I need new strings or another guitar perhaps (It's been almost a year with these strings)? And yes I tune it back to E, not some other one ;)

Hey kabuki, I'd like to see

Hey kabuki, I'd like to see a youtube video of this one if ya have the time. There are some parts I wanna see you play.

hmm

5

me to want to see a youtube video for this song

thanx to share it

5

That's a great tab, best than lonlonjp version for me. Also playable with std tuning by the way.