You're Not Alone (Final Fantasy IX) Bass Tab

Submitted: Jul 17, 2008 by AgainstBelief (Last updated: Jul 17, 2008)

0
Download | Listen
Game: Final Fantasy IX
Composer(s): Nobuo Uematsu
Style: Transcription
Series: Final Fantasy

AutoScroll: Slow | Medium | Fast
You're Not Alone
Final Fantasy IX
Composed by Nobuo Uematsu
Tabbed by Carson Mauthe ([email protected])
07/17/08

Don't rely on this tab for timing. Just listen to the song!

Intro
(It depends on tuning)
(This is what you do for standard tuning)
||--------------------------------
||--------------------------------
||------------6-------------------
||5---1---5-------5-----3-1---0---

Part I
||--------------------------------
||--------------------------------
||----7-----7-3-5-8---7---5-6-7---
||5-------5-----------------------

||--------------------------------
||--------------------------------
||----7-----8-7---8---7---5-7-----
||5-------5-----8-------------5---

Part II
||--------------------------------
||--------------------------------
||----3---5---5-------3---7---7---
||5---------------5---------------

||--------------------------------
||--------------------------------
||----3---8-7-5-3-5---7---8---8---
||5-------------------------------

||--------------------------------
||--------------------------------
||----3---5---5-------3---7---7---
||5---------------5---------------

||--------------------------------
||--------------------------------
||----3---8-7-5-3-5---7-----------
||5-----------------------5---5---

Part III
||--------------------------------
||--------------------------------
||----8-------6---7---8---9-------
||5-------5-------------------4---
Login or Register to remove this ad.