You're Not Alone (Final Fantasy IX) Guitar Tab

Submitted: Jul 17, 2008 by AgainstBelief

4.666665
Average: 4.7 (3 votes)
Download | Listen
Game: Final Fantasy IX
Composer(s): Nobuo Uematsu
Style: Transcription
Series: Final Fantasy

AutoScroll: Slow | Medium | Fast
You're Not Alone
Final Fantasy IX
Composed by Nobuo Uematsu
Tabbed by Carson Mauthe ([email protected])
07/17/08

Don't rely on this tab for timing. Just listen to the song!

||-------------------------------------------
||13---10-----10-----13-13-131210-----10-----
||---------12----9-----------------12----9---
||-------------------------------------------
||-------------------------------------------
||-------------------------------------------

||12-12-12-10--------------------------------
||------------13---13-12-10-12-131210-12-----
||-------------------------------------------
||-------------------------------------------
||-------------------------------------------
||-------------------------------------------

||---------------------------------------12--
||13---10-----10-----13-13-131210-----10-----
||---------12----9-----------------12--------
||-------------------------------------------
||-------------------------------------------
||-------------------------------------------

||12-12-12-10--------------------------------
||------------13---13-12-10-13-1210-8---12---
||-------------------------------------------
||-------------------------------------------
||-------------------------------------------
||-------------------------------------------

Repeat all

||--------5---3---------------------------------------------------
||----------------5---1---3---3-2-3-5-------------5---8---7-------
||5-4-2-------------------------------2---2---2-5-----------------
||----------------------------------------------------------------
||----------------------------------------------------------------
||----------------------------------------------------------------

||5-3-5-7-8---3---------------------------------------------------
||--------------5-3---3---1---3---5-------------------------------
||------------------------------------2---2-5-4-2-0---2-----------
||----------------------------------------------------------------
||----------------------------------------------------------------
||----------------------------------------------------------------
Login or Register to remove this ad.

3 comments on You're Not Alone

It sounds pretty dead on for

4

It sounds pretty dead on for the most part, but I think there are a couple things under "Repeat All" that are off.

-----------------------------------------8*--7*-----
5---1---3---3-1*-3-5--------------5--------------
-------------------------2---2---2-5----------------
------------------------------------------------
------------------------------------------------
------------------------------------------------
#* = correction

If I had to guess, I'd say they were just typos considering the consistency of the first part. Good job :)

Ah, and you'd be right. They

Ah, and you'd be right. They are typos! Woops. I guess I should've proof read it before I sent it in. Oh well.

Thanks for commenting!

also theres another error. in

5

also theres another error. in the 4th line on the B string....the last note should be 10 not 12 right?