The Airship Hildegarde (Final Fantasy IX) Guitar Tab

Submitted: Oct 03, 2008 by auriplane (Last updated: Dec 21, 2009)

5
Average: 5 (1 vote)
Download | Listen
Game: Final Fantasy IX
Composer(s): Nobuo Uematsu
Style: 2 or more instruments, Transcription
Series: Final Fantasy

AutoScroll: Slow | Medium | Fast
         Final Fantasy IX - The Airship, Hildagarde GUITAR TAB
                         Song by Nobuo Uematsu

                 Tabbed by auriplane ([email protected])


This is marked guitar 1 + 2 to mark when the tone changes, but
they don't play at the same time, so you can play it all on one
guitar.  It just seemed better organized if I marked when parts
traded off, and they seem like natural places to switch pickups
if you play it on one guitar.

If you don't want to play the chords on guitar 2 (like if you're
using distortion), just play the top line--it's the one you would
sing.

Rest for four measures at the start of the song.

Intro:

   Gtr 2
E |----------------|----------------|----------7---7-|13----10--------|
B |12--------14--12|1211---------11119-------9-9---9-|11----11----11--|
G |13--------13--13|1312---------121210------10------|------------10--|
D |----------------|----------------|----------------|----------------|
A |----------------|----------------|----------------|----------------|
E |----------------|----------------|----------------|----------------|

Repeat to here when the song is done:

   Gtr 1
E |----------------|----------------|----------------|----------------|
B |------------8---|------------119-|8-------8---10--|11--------------|
G |8---------------|10--------------|----10----------|----------------|
D |------8---------|------8---------|----------------|----------------|
A |----------------|----------------|----------------|----------------|
E |----------------|----------------|----------------|----------------|

   Gtr 2
E |----------------|----------------|----------------|----------------|
B |11----11----13--|14--9-----------|----------------|----------------|
G |13----11----11--|10--10--10--12--|13--------------|13--------------|
D |----------------|--------11--11--|11--------------|10--------------|
A |----------------|----------------|----------------|----------------|
E |----------------|----------------|----------------|----------------|

   Gtr 1
E |----------------|9---------------|----------------|----------------|
B |11----11----13--|----9-----------|9-----9-----11--|12--------------|
G |----------------|----------------|----------------|----11----------|
D |----------------|----------------|----------------|----------------|
A |----------------|----------------|----------------|----------------|
E |----------------|----------------|----------------|----------------|

E |----------------|----------------|----------------|----------------|
B |----------------|------------14--|12----------12--|14--------------|
G |11----11----13--|14------14------|------12--------|----------------|
D |----------------|----14----------|----------------|----------------|
A |----------------|----------------|----------------|----------------|
E |----------------|----------------|----------------|----------------|

E |----------------|----------------|----------------|----------------|
B |------------11--|------------1412|11------11--13--|14--------------|
G |11--------------|13--------------|----13----------|----------------|
D |------11--------|------11--------|----------------|----------------|
A |----------------|----------------|----------------|----------------|
E |----------------|----------------|----------------|----------------|

   Gtr 2
E |----------------|----------------|----------------|----------------|
B |14----14----16--|17--12----------|----------------|----------------|
G |16----14----14--|13--13--13--15--|16--------------|16--------------|
D |----------------|--------14--14--|14--------------|13--------------|
A |----------------|----------------|----------------|----------------|
E |----------------|----------------|----------------|----------------|

   Gtr 1
E |----------------|12--------------|----------------|----------------|
B |14----14----16--|----12----------|12----12----14--|15--------------|
G |----------------|----------------|----------------|----14----------|
D |----------------|----------------|----------------|----------------|
A |----------------|----------------|----------------|----------------|
E |----------------|----------------|----------------|----------------|

E |----------------|----------------|--------12------|----------------|
B |----------------|14--------------|------------15--|13--12--13--15--|
G |14----14----16--|------14--------|----14----------|----------------|
D |----------------|------------14--|15--------------|----------------|
A |----------------|----------------|----------------|----------------|
E |----------------|----------------|----------------|----------------|

   Gtr 2
E |----------------|----------------|----------------|----------------|
B |15----1414------|------1415141210|14----1512------|--------10--12--|
G |14----1414------|------1414141111|12----1212------|--------11--12--|
D |----------------|----------------|----------------|----------------|
A |----------------|----------------|----------------|----------------|
E |----------------|----------------|----------------|----------------|

E |----------------|----------------|12----7-12------|----------------|
B |15----1414------|------1415141210|8-----8-8-------|----------------|
G |14----1414------|------1414141111|----------------|----------------|
D |----------------|----------------|----------------|----------------|
A |----------------|----------------|----------------|----------------|
E |----------------|----------------|----------------|----------------|

   Gtr 1
E |12----14----15--|14------------12|14----12--------|----12----------|
B |----------------|------15--1515--|------------15--|12--------------|
G |----------------|----------------|----------------|----------------|
D |----------------|----------------|----------------|----------------|
A |----------------|----------------|----------------|----------------|
E |----------------|----------------|----------------|----------------|

E |------------12--|----------------|14--1512--------|----------------|
B |13----15--------|15----12--15----|----------------|----------------|
G |----------------|----------------|----------------|----------------|
D |----------------|----------------|----------------|----------------|
A |----------------|----------------|----------------|----------------|
E |----------------|----------------|----------------|----------------|

   Gtr 2
E |----------------|----------------|----------------|----------------|
B |----------------|----------------|----------------|----------------|
G |9-----11----12--|11--------------|11----9-----7---|----9-----------|
D |10----10----10--|12----12--121214|9-----9-----9---|9---9-----------|
A |----------------|------12--121212|----------------|11--------------|
E |----------------|----------------|----------------|----------------|

E |----------------|----------------|----------------|----------------|
B |----------------|----------------|8-----10----11--|10--------------|
G |9-----11----12--|11--------------|8-----8-----8---|10----10--------|
D |10----10----10--|12----12--------|----------------|------10--------|
A |----------------|------12--------|----------------|----------------|
E |----------------|----------------|----------------|----------------|

E |----------------|----------------|----------------|----------------|
B |11----13----14--|16----16---16---|16--------------|15--------------|
G |11----11----11--|13----13---13---|15--------------|15--------------|
D |----------------|----------------|----------------|----------------|
A |----------------|----------------|----------------|----------------|
E |----------------|----------------|----------------|----------------|

Login or Register to remove this ad.

2 comments on The Airship Hildegarde

Very nice!

5

Man, spot on with them notes. Nice tab.

Thanks! It's my first guitar

Thanks! It's my first guitar tab ever.