Ads

Terra (Final Fantasy IX) Guitar Tab

Submitted: Sep 15, 2008 by TheDoomOfAllFires (Last updated: Oct 31, 2009)

5
Average: 5 (4 votes)
Download | Listen
Game: Final Fantasy IX
Composer(s): Nobuo Uematsu
Style: Arrangement, Fingerstyle
Series: Final Fantasy

AutoScroll: Slow | Medium | Fast
Final Fantasy IX - Terra 
Arranged & tabbed by TheDoomOfAllFires, 09/10/2008

Bpm = 100
Standard tuning
3/4



    E   E   Q    E  E      E  E  E   E   E  E      E  E  Q     E  E   
E||--8------------------|-----------------------|---------------------|
B||-----10--------------|--10-------------------|---------------------|
G||----------9----7--9--|------9--7-------7--9--|--10--7--------------|
D||---------10----------|------------10---------|---------7--------7--|
A||--0------------------|---7----------------7--|---8----------10-----|
E||---------------------|----------------10-----|---------------------|


                              ^    ^            ^    ^            ^    ^     
  E   E   E  E  E  E     Q    Q    Q       Q    Q    Q       Q    Q    Q     
----------------------|-------0----5----|-------0----5----|-------0----5----|
----------------------|-------1----0----|-------1----0----|-------1----0----|
--9----------7-----7--|-------2----2----|-------2----2----|-------2----2----|
-----10---------8-----|-----------------|-----------------|-----------------|
---------10-----------|--0--------------|--0--------------|--0--------------|
--8-------------------|-----------------|-----------------|-----------------|


       ^    ^                                               
  Q    Q    Q       E  E  E  E  E  E     E  E  E  E  E  E   
-------0----5----|--------------------|--0-----------2--3--|
-------1----0----|--------0-----1--3--|-----1-----1--3-----|
-------2----2----|--2--------2--2--0--|--------2--------2--|
-----------------|-----2--------------|--------------------|
--0--------------|--0-----------------|--3-----------------|
-----------------|--------------------|--------------------|


                                                      ^    ^     
                       |--3--|                                   
  E  E  E  E  E  E     S  S  S E  E  E  E  E     Q    Q    Q     
--2-----0--------0--|-------------------------|-------0----5----|
--------1-----3-----|--0h-1p-0----------------|-------1----0----|
-----2-----2-----4--|----------2--0-----2-----|-------2----2----|
--0-----------------|----------------2--------|--2--------------|
--------------------|-------------2-----3--2--|--0--------------|
--------------------|--3----------------------|-----------------|


       ^    ^            ^    ^            ^    ^                          
  Q    Q    Q       Q    Q    Q       Q    Q    Q       E  E  E  E  E  E   
-------0----5----|-------0----5----|-------0----5----|--------------------|
-------1----0----|-------1----0----|-------1----0----|--------0-----1--3--|
-------2----2----|-------2----2----|-------2----2----|--2--------2--2--0--|
-----------------|-----------------|-----------------|-----2--------------|
--0--------------|--0--------------|--0--------------|--0-----------------|
-----------------|-----------------|-----------------|--------------------|


                                                 ^    ^            ^    ^     
  E  E  E  E  E  E     E  E  E  E  E  E     Q    Q    Q       Q    Q    Q     
--0-----------2--3--|--2-----0-----------|--0----0----5----|-------0----5----|
-----1-----1--3-----|--------1--------4--|-------1----0----|-------1----0----|
--------2--------2--|-----2-----2--------|-------2----2----|-------2----2----|
--------------------|--0-----------2-----|-----------------|-----------------|
--3-----------------|--------------------|--0--------------|--0--------------|
--------------------|--------------------|-----------------|-----------------|


       ^    ^            ^    ^                                               
  Q    Q    Q       Q    Q    Q       E  E  E  E  E  E     E  E  E  E  E  E   
-------0----5----|-------0----5----|--------------------|--0-----------2--3--|
-------1----0----|-------1----0----|--------0-----1--3--|-----1-----1--3-----|
-------2----2----|-------2----2----|--2--------2--2--0--|--------2--------2--|
-----------------|-----------------|-----2--------------|--------------------|
--0--------------|--0--------------|--0-----------------|--3-----------------|
-----------------|-----------------|--------------------|--------------------|


                                                      ^    ^     
                       |--3--|                                   
  E  E  E  E  E  E     S  S  S E  E  E  E  E     Q    Q    Q     
--2-----0--------0--|-------------------------|-------0----5----|
--------1-----3-----|--0h-1p-0----------------|-------1----0----|
-----2-----2-----4--|----------2--0-----2-----|-------2----2----|
--0-----------------|----------------2--------|--2--------------|
--------------------|-------------2-----3--2--|--0--------------|
--------------------|--3----------------------|-----------------|


       ^    ^            ^    ^            ^    ^                          
  Q    Q    Q       Q    Q    Q       Q    Q    Q       E  E  E  E  E  E   
-------0----5----|-------0----5----|-------0----5----|--------------------|
-------1----0----|-------1----0----|-------1----0----|--1-----1-----0--1--|
-------2----2----|-------2----2----|-------2----2----|-----2--------0-----|
-----------------|-----------------|-----------------|-----------2-----2--|
--0--------------|--0--------------|--0--------------|--0-----------------|
-----------------|-----------------|-----------------|--------------------|


  E  E  E  E  E  E     E  E  E  E  Q       E  E  E  E  E  E   
--------------------|--------------0----|--------------------|
--3--------1--0-----|--------0--1-------|--0-----------3-----|
-----4-----------2--|--0-----------0----|-----0-----0-----0--|
--------5-----------|-----2-------------|--------2-----------|
--------------------|-------------------|--------------------|
--3-----------------|--0----------------|--3-----------------|


                                               ^    ^            ^    ^     
  E  E  E  E  Q       E  E  E  E  Q       Q    Q    Q       Q    Q    Q     
-------------------|-------------------|-------0----5----|-------0----5----|
--1--------1--0----|-------------------|-------1----0----|-------1----0----|
-----2-------------|--2-----2-----0----|-------2----2----|-------2----2----|
--------2----------|-----3-------------|--2--------------|-----------------|
--0----------------|-----------3-------|--0--------------|--0--------------|
-------------------|--1----------------|-----------------|-----------------|


       ^    ^            ^    ^                                               
  Q    Q    Q       Q    Q    Q       E  E  E  E  E  E     E  E  E  E  E  E   
-------0----5----|-------0----5----|--5--------0--5-----|--3-----2-----0-----|
-------1----0----|-------1----0----|-----1--------------|-----------------3--|
-------2----2----|-------2----2----|--------2--------2--|-----0-----0--------|
-----------------|-----------------|--------------------|--------------------|
--0--------------|--0--------------|--0-----------------|--3-----------------|
-----------------|-----------------|--------------------|--------------------|


  E  E  E  E  E  E     E  E  E  E  E  E     E  E  E  E  E  E   
--0-----------0--2--|--3--------3-----3--|--5--------0--5-----|
--------1--3--1-----|-----3--------3-----|-----1--------------|
-----0-----------2--|--------0-----------|--------2--------2--|
-----------0--------|--------------------|--------------------|
--3-----------------|--------------------|--0-----------------|
--------------------|--3--------3--------|--------------------|


  E  E  E  E  E  E     E  E  E  E  E  E     E  E  E  E  E  E   
--3-----2-----0-----|--------0-----------|-----------------0--|
-----------------3--|--1--------0--------|-----------1--------|
-----0-----0--------|-----2--------2--0--|--2-----2-----2-----|
--------------------|--------------------|-----2--------------|
--3-----------------|--0-----------------|--0-----------------|
--------------------|-----------3--------|--------------------|


  E  E  E  E  E  E     E  E  E  E  E  E     E  E  E  E  E  E   
--5--------0--5-----|--3-----2-----0-----|--0-----------0--2--|
-----1--------------|-----------------3--|--------1--3--1-----|
--------2--------2--|-----0-----0--------|-----0-----------2--|
--------------------|--------------------|-----------0--------|
--0-----------------|--3-----------------|--3-----------------|
--------------------|--------------------|--------------------|


  E  E  E  E  E  E     E  E  E  E  E  E     E  E  E  E  E  E   
--3--------3-----3--|--5--------0--5-----|--3-----2-----0-----|
-----3--------3-----|-----1--------------|-----------------3--|
--------0-----------|--------2--------2--|-----0-----0--------|
--------------------|--------------------|--------------------|
--------------------|--0-----------------|--3-----------------|
--3--------3--------|--------------------|--------------------|


                                                 ^    ^            ^    ^     
  E  E  E  E  E  E     E  E  E  E  E  E     Q    Q    Q       Q    Q    Q     
--------0-----------|-----------------0--|-------0----5----|-------0----5----|
--1--------0--------|-----------1--------|-------1----0----|-------1----0----|
-----2--------2--1--|--2-----2-----2-----|-------2----2----|-------2----2----|
--------------------|-----2--------------|--2--------------|-----------------|
--0-----------------|--0-----------------|--0--------------|--0--------------|
-----------3--------|--------------------|-----------------|-----------------|


       ^    ^            ^    ^       ^              
  Q    Q    Q       Q    Q    Q       H.             
-------0----5----|-------0----5----|--0------------||
-------1----0----|-------1----0----|--1------------||
-------2----2----|-------2----2----|--2------------||
-----------------|-----------------|--2------------||
--0--------------|--0--------------|--0------------||
-----------------|-----------------|---------------||
Login or Register to remove this ad.

2 comments on Terra

Nice (:

Nice (:

Very good but it's hard to

Very good but it's hard to play the bigining fast