Sword of Doubt (Final Fantasy IX) Guitar Tab

Submitted: Jan 05, 2009 by rustysteiner

5
Average: 5 (1 vote)
Download | Listen
Game: Final Fantasy IX
Composer(s): Nobuo Uematsu
Style: Transcription
Series: Final Fantasy

AutoScroll: Slow | Medium | Fast
Song: Sword of Doubt (Beatrix's Theme)
Game: Final Fantasy IX
Composed By: Nobuo Uematsu
Tabbed By: Sharat (rustysteiner)
Date: January 3rd, 2009

e|---------3---6-5-----------------------
B|--3-5-6--------------------------------
G|---------------------------------------
D|-----------------------------------0---
A|-------------------------------------3-
E|---------------------------------------


e|---------0---3-------------------------
B|-----3---------6-----------------------
G|-3-5-----------------------------------
D|---------------------------------------
A|-----------------------------------1-3-
E|---------------------------------------


e|---------3---6-5-----------------------
B|--3-5-6--------------------------------
G|---------------------------------------
D|-------------------------------------0-
A|-----------------------------------3---
E|---------------------------------------

e|---------6---9-8-----------------------
B|--6-8-9--------------------------------
G|---------------------------------------
D|---------------------------------------
A|---------------------------------------
E|---------------------------------------


e|---------6--6-8-6----------------------
B|--6-8-9-----------9-8-6-4-6------------
G|---------------------------------------
D|---------------------------------------
A|---------------------------------------
E|---------------------------------------



e|-----------11--11-13-11----------------
B|--11-13-14--------------14-13-11-9-7---
G|---------------------------------------
D|---------------------------------------
A|---------------------------------------
E|---------------------------------------


e|--13-11--------------------------------
B|--------14-13--9-11--------------------
G|---------------------------------------
D|---------------------------------------
A|---------------------------------------
E|---------------------------------------


And That's all.
Login or Register to remove this ad.