Stirring The Forest (Quartet) (Final Fantasy IX) Bass/Guitar Tab

Submitted: Mar 21, 2009 by TheDoomOfAllFires (Last updated: Apr 04, 2010)

5
Average: 5 (1 vote)
Download | Listen
Game: Final Fantasy IX
Composer(s): Nobuo Uematsu
Style: 2 or more instruments, Arrangement, Fingerstyle
Series: Final Fantasy

AutoScroll: Slow | Medium | Fast
Final Fantasy IX - Stirring The Forest
Arranged by TheDoomOfAllFires; 03/21/2009

BPM=100

Acoustic 1: Standard Tuning
Acoustic 2: Standard Tuning
Electric Guitar: Standard Tuning
Bass: Standard Tuning


My most complete arrangement.
Hope you like it ! ^^


Acoustic Guitar 1: 

     E  E  E  E  E  E     E  E  E  E  E  E     E  E  E  E  E  E   
E||--3--------0-----5--|--3--------0-----5--|--3--------0-----5--|
B||-----3--------3-----|-----3--------3-----|-----3--------3-----|
G||--------2-----------|--------2-----------|--------2-----------|
D||-----2--------------|-----2--------------|-----2--------------|
A||--0-----------------|--0-----------------|--0-----------------|
E||--------------------|--------------------|--------------------|


  E  E  E  E  E  E     E  E  E  E  E  E     E  E  E  E  E  E   
--3--------0-----5--|--3--------0-----5--|--3--------0-----5--|
-----3--------3-----|-----3--------3-----|-----3--------3-----|
--------2-----------|--------2-----------|--------2-----------|
-----2--------------|-----2--------------|-----2--------------|
--0-----------------|--0-----------------|--0-----------------|
--------------------|--------------------|--------------------|


  E  E  E  E  E  E     E  E  E  E  E  E     E  E  E  E  E  E   
--3--------0-----5--|--3--------0-----5--|--3--------0-----5--|
-----3--------3-----|-----3--------3-----|-----3--------3-----|
--------2-----------|--------2-----------|--------2-----------|
-----2--------------|-----2--------------|-----3--------------|
--0-----------------|--0-----------------|--------------------|
--------------------|--------------------|--1-----------------|


  E  E  E  E  E  E     E  E  E  E  E  E     E  E  E  E  E  E   
--3--------0-----5--|--3--------0-----5--|--3--------0-----5--|
-----3--------3-----|-----3--------3-----|-----3--------3-----|
--------2-----------|--------2-----------|--------2-----------|
-----3--------------|-----3--------------|-----3--------------|
--------------------|--------------------|--------------------|
--1-----------------|--1-----------------|--1-----------------|


  E  E  E  E  E  E     E  E  E  E  E  E     E  E  E  E  E  E   
--3--------0-----5--|--3--------0-----5--|--3--------0-----5--|
-----3--------3-----|-----3--------3-----|-----3--------3-----|
--------2-----------|--------2-----------|--------2-----------|
-----2--------------|-----2--------------|-----2--------------|
--0-----------------|--0-----------------|--0-----------------|
--------------------|--------------------|--------------------|


  E  E  E  E  E  E     E  E  E  E  E  E     E  E  E  E  E  E   
--3--------0-----5--|--3--------0-----5--|--3--------0-----5--|
-----3--------3-----|-----3--------3-----|-----3--------3-----|
--------2-----------|--------2-----------|--------2-----------|
-----2--------------|-----3--------------|-----3--------------|
--0-----------------|--------------------|--------------------|
--------------------|--1-----------------|--1-----------------|


  E  E  E  E  E  E     E  E  E  E  E  E       E  E  E  E  E  E   
--3--------0-----5--|--3--------0-----5--||---3--------0-----5--|
-----3--------3-----|-----3--------3-----||------3--------3-----|
--------2-----------|--------2-----------||*--------2-----------|
-----3--------------|-----3--------------||*-----2--------------|
--------------------|--------------------||---0-----------------|
--1-----------------|--1-----------------||---------------------|


  E  E  E  E  E  E     E  E  E  E  E  E     E  E  E  E  E  E   
--3--------0-----5--|--3--------0-----5--|--3--------0-----5--|
-----3--------3-----|-----3--------3-----|-----3--------3-----|
--------2-----------|--------2-----------|--------2-----------|
-----2--------------|-----2--------------|-----2--------------|
--0-----------------|--0-----------------|--0-----------------|
--------------------|--------------------|--------------------|


  E  E  E  E  E  E     E  E  E  E  E  E     E  E  E  E  E  E   
--3--------0-----5--|--3--------0-----5--|--3--------0-----5--|
-----3--------3-----|-----3--------3-----|-----3--------3-----|
--------2-----------|--------2-----------|--------2-----------|
-----3--------------|-----3--------------|-----3--------------|
--------------------|--------------------|--------------------|
--1-----------------|--1-----------------|--1-----------------|


  E  E  E  E  E  E     E  E  E  E  E  E     E  E  E  E  E  E   
--3--------0-----5--|--3--------0-----5--|--3--------0-----5--|
-----3--------3-----|-----3--------3-----|-----3--------3-----|
--------2-----------|--------2-----------|--------2-----------|
-----3--------------|-----2--------------|-----2--------------|
--------------------|--0-----------------|--0-----------------|
--1-----------------|--------------------|--------------------|


  E  E  E  E  E  E     E  E  E  E  E  E       E  E  E  E  E  E   
--3--------0-----5--|--3--------0-----5---||--3--------0-----5--|
-----3--------3-----|-----3--------3------||-----3--------3-----|
--------2-----------|--------2-----------*||--------2-----------|
-----2--------------|-----2--------------*||-----2--------------|
--0-----------------|--0------------------||--0-----------------|
--------------------|---------------------||--------------------|


  E  E  E  E  E  E     E  E  E  E  E  E     E  E  E  E  E  E   
--3--------0-----5--|--3--------0-----5--|--3--------0-----5--|
-----3--------3-----|-----3--------3-----|-----3--------3-----|
--------2-----------|--------2-----------|--------2-----------|
-----2--------------|-----2--------------|-----2--------------|
--0-----------------|--0-----------------|--0-----------------|
--------------------|--------------------|--------------------|


  E  E  E  E  E  E     E  E  E  E  E  E     E  E  E  E  E  E   
--------3-----------|--------3-----------|--------4-----------|
--------------6-----|--------------6-----|--------------7-----|
-----5-----5-----5--|-----5-----5-----5--|-----6-----6-----6--|
--3-----------------|--3-----------------|--4-----------------|
--------------------|--------------------|--------------------|
--------------------|--------------------|--------------------|


  E  E  E  E  E  E     E  E  E  E  E  E     E  E  E  E  E  E   
--------4-----------|--------4-----------|--------4-----------|
--------------7-----|--------------7-----|--------------7-----|
-----6-----6-----6--|-----6-----6-----6--|-----6-----6-----6--|
--4-----------------|--4-----------------|--4-----------------|
--------------------|--------------------|--------------------|
--------------------|--------------------|--------------------|


  E  E  E  E  E  E     E  E  E  E  E  E     E  E  E  E  E  E   
--------4-----------|--------4-----------|-----------0-----5--|
--------------7-----|--------------7-----|--------------3-----|
-----6-----6-----6--|-----6-----6-----6--|-----2-----2--------|
--4-----------------|--4-----------------|--0-----0-----------|
--------------------|--------------------|--------------------|
--------------------|--------------------|--------------------|


  E  E  E  E  E  E     E  E  E  E  E  E     E  E  E  E  E  E   
-----------0-----5--|-----------0-----5--|-----------0-----5--|
--------------3-----|--------------3-----|--------------3-----|
-----2-----2--------|-----2-----2--------|-----2-----2--------|
--0-----0-----------|--0-----0-----------|--0-----0-----------|
--------------------|--------------------|--------------------|
--------------------|--------------------|--------------------|


  E  E  E  E  E  E     E  E  E  E  E  E     E  E  E  E  E  E   
--2--------------4--|-----------------5--|--2--------------4--|
-----2-----2--------|-----2-----2--------|-----2-----2--------|
--------------4-----|--------------4-----|--------------4-----|
--------4-----------|--------4-----------|--------4-----------|
--------------------|--------------------|--------------------|
--------------------|--2-----------------|--------------------|


  E  E  E  E  E  E     E  E  E  E  E  E     E  E  E  E  E  E   
-----------------5--|--0--------------2--|-----------------3--|
-----2-----2--------|-----0-----0--------|-----0-----0--------|
--------------4-----|--------------2-----|--------------2-----|
--------4-----------|--------2-----------|--------2-----------|
--------------------|--------------------|--2-----------------|
--2-----------------|--------------------|--------------------|


  E  E  E  E  E  E     E  E  E  E  E  E     E  E  E  E  E  E   
--0--------------2--|-----------------3--|--4--------------6--|
-----0-----0--------|-----0-----0--------|-----4-----4--------|
--------------2-----|--------------2-----|--------4-----------|
--------2-----------|--------2-----------|--------------6-----|
--------------------|--2-----------------|--------------------|
--------------------|--------------------|--------------------|


  E  E  E  E  E  E     E  E  E  E  E  E     E  E  E  E  E  E   
-----------------6--|--4--------------6--|-----------------6--|
-----4-----4--------|-----4-----4--------|-----4-----4--------|
--------4-----------|--------4-----------|--------4-----------|
--------------6-----|--------------6-----|--------------6-----|
--------------------|--------------------|--2-----------------|
--4-----------------|--------------------|--------------------|


  E  E  E  E  E  E     E  E  E  E  E  E     E  E  E  E  E  E   
--3--------0-----5--|--3--------0-----5--|--3--------0-----5--|
-----3--------3-----|-----3--------3-----|-----3--------3-----|
--------2-----------|--------2-----------|--------2-----------|
-----2--------------|-----2--------------|-----2--------------|
--0-----------------|--0-----------------|--0-----------------|
--------------------|--------------------|--------------------|


  E  E  E  E  E  E     E  E  E  E  E  E     E  E  E  E  E  E   
--3--------0-----5--|--3--------0-----5--|--3--------0-----5--|
-----3--------3-----|-----3--------3-----|-----3--------3-----|
--------2-----------|--------2-----------|--------2-----------|
-----2--------------|-----2--------------|-----2--------------|
--0-----------------|--0-----------------|--0-----------------|
--------------------|--------------------|--------------------|


  E  E  E  E  E  E     E  E  E  E  E  E     E  E  E  E  E  E   
--3--------0-----5--|--3--------0-----5--|--3--------0-----5--|
-----3--------3-----|-----3--------3-----|-----3--------3-----|
--------2-----------|--------2-----------|--------2-----------|
-----2--------------|-----2--------------|-----3--------------|
--0-----------------|--0-----------------|--------------------|
--------------------|--------------------|--1-----------------|


  E  E  E  E  E  E     E  E  E  E  E  E     E  E  E  E  E  E          
--3--------0-----5--|--3--------0-----5--|--3--------0-----5--|-----||
-----3--------3-----|-----3--------3-----|-----3--------3-----|-----||
--------2-----------|--------2-----------|--------2-----------|-----||
-----3--------------|-----3--------------|-----3--------------|-----||
--------------------|--------------------|--------------------|-----||
--1-----------------|--1-----------------|--1-----------------|-----||






Acoustic Guitar 2:


E||-------|-------|-------|--------------5--|--3------12------|
B||-------|-------|-------|-----------------|-----------------|
G||-------|-------|-------|-----------------|-----------------|
D||-------|-------|-------|-----------------|-----------------|
A||-------|-------|-------|-----------------|-----------------|
E||-------|-------|-------|-----------------|-----------------|


   H        E  E     Q.      Q.         H        E  E     Q.      Q.      
--10-----------5--|--3------12------|--10-----------5--|--3------12------|
------------------|-----------------|------------------|-----------------|
------------------|-----------------|------------------|-----------------|
------------------|-----------------|------------------|-----------------|
------------------|-----------------|------------------|-----------------|
------------------|-----------------|------------------|-----------------|


   H        E  E     Q.      Q.         H        E  E     Q.      Q.      
--10-----------5--|--3------12------|--10-----------5--|--3------12------|
------------------|-----------------|------------------|-----------------|
------------------|-----------------|------------------|-----------------|
------------------|-----------------|------------------|-----------------|
------------------|-----------------|------------------|-----------------|
------------------|-----------------|------------------|-----------------|


   H        E  E     Q.      Q.         H        E  E     Q.      Q.      
--10-----------5--|--3------12------|--10-----------5--|--3------12------|
------------------|-----------------|------------------|-----------------|
------------------|-----------------|------------------|-----------------|
------------------|-----------------|------------------|-----------------|
------------------|-----------------|------------------|-----------------|
------------------|-----------------|------------------|-----------------|


   H        E  E     Q.      Q.         H        E  E       Q.      Q.      
--10-----------5--|--3------12------|--10-----------5--||---3------12------|
------------------|-----------------|------------------||------------------|
------------------|-----------------|------------------||*-----------------|
------------------|-----------------|------------------||*-----------------|
------------------|-----------------|------------------||------------------|
------------------|-----------------|------------------||------------------|


   H        E  E     Q.      Q.         H        E  E     Q.      Q.      
--10-----------5--|--3------12------|--10-----------5--|--3------12------|
------------------|-----------------|------------------|-----------------|
------------------|-----------------|------------------|-----------------|
------------------|-----------------|------------------|-----------------|
------------------|-----------------|------------------|-----------------|
------------------|-----------------|------------------|-----------------|


   H        E  E     Q.      Q.         H        E  E     Q.      Q.      
--10-----------5--|--3------12------|--10-----------5--|--3------12------|
------------------|-----------------|------------------|-----------------|
------------------|-----------------|------------------|-----------------|
------------------|-----------------|------------------|-----------------|
------------------|-----------------|------------------|-----------------|
------------------|-----------------|------------------|-----------------|


   H        E  E     Q.      Q.         H        E  E       Q.      Q.      
--10-----------5--|--3------12------|--10-----------5---||--3------12------|
------------------|-----------------|-------------------||-----------------|
------------------|-----------------|------------------*||-----------------|
------------------|-----------------|------------------*||-----------------|
------------------|-----------------|-------------------||-----------------|
------------------|-----------------|-------------------||-----------------|


   H        E  E     Q.      Q.         H        E  E               
--10-----------5--|--3------12------|--10-----------5--|-----|-----|
------------------|-----------------|------------------|-----|-----|
------------------|-----------------|------------------|-----|-----|
------------------|-----------------|------------------|-----|-----|
------------------|-----------------|------------------|-----|-----|
------------------|-----------------|------------------|-----|-----|


  ^               ^               ^               ^               ^             
  H.              H.              H.              H.              H.            
--5------------|--5------------|--5------------|--5------------|--5------------|
--7------------|--7------------|--7------------|--7------------|--7------------|
--6------------|--6------------|--6------------|--6------------|--6------------|
---------------|---------------|---------------|---------------|---------------|
---------------|---------------|---------------|---------------|---------------|
---------------|---------------|---------------|---------------|---------------|


  ^               ^               ^               ^               ^             
  H.              H.              H.              H.              H.            
--5------------|--5------------|--5------------|--5------------|--5------------|
--7------------|--6------------|--6------------|--6------------|--6------------|
--6------------|--7------------|--7------------|--7------------|--7------------|
---------------|---------------|---------------|---------------|---------------|
---------------|---------------|---------------|---------------|---------------|
---------------|---------------|---------------|---------------|---------------|


  ^               ^               ^               ^                             
  H.              H.              H.              H.              H.            
--2------------|--2------------|--2------------|--2------------|---------------|
--2------------|--2------------|--2------------|--2------------|---------------|
--4------------|--4------------|--4------------|--4------------|---------------|
---------------|---------------|---------------|---------------|--2------------|
---------------|---------------|---------------|---------------|--2------------|
---------------|---------------|---------------|---------------|--0------------|


                  H.                              H.                            
---------------|---------------|---------------|---------------|---------------|
---------------|---------------|---------------|---------------|---------------|
---------------|---------------|---------------|---------------|---------------|
---------------|--2------------|---------------|--6------------|---------------|
---------------|--2------------|---------------|--6------------|---------------|
---------------|--0------------|---------------|--4------------|---------------|


                                                          Q.     Q    E   
---------------|---------------|-------|-------|-------|--------------5--|
---------------|---------------|-------|-------|-------|-----------------|
---------------|---------------|-------|-------|-------|-----------------|
---------------|---------------|-------|-------|-------|-----------------|
---------------|---------------|-------|-------|-------|-----------------|
---------------|---------------|-------|-------|-------|-----------------|


  Q.      Q.         H        E  E     Q.      Q.         H        E  E   
--3------12------|--10-----------5--|--3------12------|--10-----------5--|
-----------------|------------------|-----------------|------------------|
-----------------|------------------|-----------------|------------------|
-----------------|------------------|-----------------|------------------|
-----------------|------------------|-----------------|------------------|
-----------------|------------------|-----------------|------------------|


  Q.      Q.         H        E  E     Q.      Q.         H        E  E   
--3------12------|--10-----------5--|--3------12------|--10-----------5--|
-----------------|------------------|-----------------|------------------|
-----------------|------------------|-----------------|------------------|
-----------------|------------------|-----------------|------------------|
-----------------|------------------|-----------------|------------------|
-----------------|------------------|-----------------|------------------|


-----||
-----||
-----||
-----||
-----||
-----||






Electric Guitar :


E||-------|-------|-------|-------|-------|-------|-------|-------|-------|
B||-------|-------|-------|-------|-------|-------|-------|-------|-------|
G||-------|-------|-------|-------|-------|-------|-------|-------|-------|
D||-------|-------|-------|-------|-------|-------|-------|-------|-------|
A||-------|-------|-------|-------|-------|-------|-------|-------|-------|
E||-------|-------|-------|-------|-------|-------|-------|-------|-------|


-------|-------|-------|-------|-------|-------|-------|-------|-------|-------|
-------|-------|-------|-------|-------|-------|-------|-------|-------|-------|
-------|-------|-------|-------|-------|-------|-------|-------|-------|-------|
-------|-------|-------|-------|-------|-------|-------|-------|-------|-------|
-------|-------|-------|-------|-------|-------|-------|-------|-------|-------|
-------|-------|-------|-------|-------|-------|-------|-------|-------|-------|


               E   E   E   E   E   E      E  E   H                          
---------||---------------------------|--------------------|-------|-------|
---------||---12--13------------------|--------------------|-------|-------|
---------||*--------------14--11------|--12--9-------------|-------|-------|
---------||*----------14----------12--|---------10~--------|-------|-------|
---------||---------------------------|--------------------|-------|-------|
---------||---------------------------|--------------------|-------|-------|


  E   E  E  E   E  E     H.                       Q.     E  E  E   
----------------------|----------------|-------|------------------|
----------------------|----------------|-------|---------6--5-----|
---------9---------7--|----------------|-------|---------------5--|
--9--10-----7---------|----------------|-------|------------------|
---------------10-----|--8~------------|-------|------------------|
----------------------|----------------|-------|------------------|


  E  E  E  E  E  E     H.                                                       
--------------------|----------------|-------|--------||-------|-------|-------|
--3-----------------|----------------|-------|--------||-------|-------|-------|
-----4--0--2--------|----------------|-------|-------*||-------|-------|-------|
--------------4--0--|--2~------------|-------|-------*||-------|-------|-------|
--------------------|----------------|-------|--------||-------|-------|-------|
--------------------|----------------|-------|--------||-------|-------|-------|


                                           E  E  E  Q.       
-------|-------|-------|-------|-------|------7--9----------|
-------|-------|-------|-------|-------|--10--------7~------|
-------|-------|-------|-------|-------|--------------------|
-------|-------|-------|-------|-------|--------------------|
-------|-------|-------|-------|-------|--------------------|
-------|-------|-------|-------|-------|--------------------|


  Q.     E  E   E      E  E  E  Q.         Q    Q     Q        H.             
-------------------|--------------------|------------------|-----------------|
---------7--9--10--|--------------------|------------------|-----------------|
-------------------|------8--9----------|------------------|-----------------|
-------------------|--11--------7~------|-------9----11----|--12~------------|
-------------------|--------------------|------------------|-----------------|
-------------------|--------------------|------------------|-----------------|


   H         Q        H.                H         Q        H.             
------------------|-----------------|------------------|-----------------|
------------------|-----------------|------------------|-----------------|
------------------|--14~------------|------------------|-----------------|
--14--------15----|-----------------|--14--------15----|--16~------------|
------------------|-----------------|------------------|-----------------|
------------------|-----------------|------------------|-----------------|


                                                   H.            
---------------|---------------|---------------|----------------|
---------------|---------------|---------------|----------------|
---------------|---------------|---------------|----------------|
---------------|---------------|---------------|--14------------|
---------------|---------------|---------------|----------------|
---------------|---------------|---------------|----------------|


   H         Q        H.                Q.      Q.         H.             
------------------|-----------------|------------------|-----------------|
------------------|-----------------|------------------|-----------------|
------------------|--16~------------|------------------|-----------------|
--16--------17----|-----------------|--16------17------|--18~------------|
------------------|-----------------|------------------|-----------------|
------------------|-----------------|------------------|-----------------|


---------------|---------------|---------------|-------|-------|-------|-------|
---------------|---------------|---------------|-------|-------|-------|-------|
---------------|---------------|---------------|-------|-------|-------|-------|
---------------|---------------|---------------|-------|-------|-------|-------|
---------------|---------------|---------------|-------|-------|-------|-------|
---------------|---------------|---------------|-------|-------|-------|-------|


-------|-------|-------|-------|-------|-------|-------|-------|-------||
-------|-------|-------|-------|-------|-------|-------|-------|-------||
-------|-------|-------|-------|-------|-------|-------|-------|-------||
-------|-------|-------|-------|-------|-------|-------|-------|-------||
-------|-------|-------|-------|-------|-------|-------|-------|-------||
-------|-------|-------|-------|-------|-------|-------|-------|-------||





Bass :


G||-------|-------|-------|-------|-------|-------|-------|-------|-------|
D||-------|-------|-------|-------|-------|-------|-------|-------|-------|
A||-------|-------|-------|-------|-------|-------|-------|-------|-------|
E||-------|-------|-------|-------|-------|-------|-------|-------|-------|


-------|-------|-------|-------|-------|-------|-------|-------|-------|-------|
-------|-------|-------|-------|-------|-------|-------|-------|-------|-------|
-------|-------|-------|-------|-------|-------|-------|-------|-------|-------|
-------|-------|-------|-------|-------|-------|-------|-------|-------|-------|


-------||--------|-------|-------|-------|-------|-------|-------|-------|
-------||*-------|-------|-------|-------|-------|-------|-------|-------|
-------||*-------|-------|-------|-------|-------|-------|-------|-------|
-------||--------|-------|-------|-------|-------|-------|-------|-------|


-------|-------|-------|--------||-------|-------|-------|-------|
-------|-------|-------|-------*||-------|-------|-------|-------|
-------|-------|-------|-------*||-------|-------|-------|-------|
-------|-------|-------|--------||-------|-------|-------|-------|


      E   E   E   E   E   E      E   E   E   E   E   E      H.            
-----------------------------|--12----------------------|----------------|
-----------------14--12------|------15--14--12--14--15--|----------------|
---------14--15----------15--|--------------------------|--12------------|
--15g17----------------------|--------------------------|----------------|


                  H.              H        Q       H.            
---------------|---------------|----------------|---------------|
---------------|---------------|----------------|---------------|
---------------|---------------|----------------|--4------------|
---------------|--2------------|-----------2----|---------------|


  Q    Q    Q       H.              H        E  E     H.            
-----------------|---------------|-----------------|---------------|
-------4----2----|--0------------|-----------3--2--|--0------------|
-----------------|---------------|--0--------------|---------------|
--2--------------|---------------|-----------------|---------------|


  Q.     E  S S S S    H        E  E     H        E  E     H        E  E   
--------------------|-----------------|-----------------|-----------------|
--------------------|-----------------|-----------------|-----------------|
--0------0----------|-----------------|-----------------|--0-----------0--|
------------4---3---|--2--------1--2--|--4--------2--4--|-----------4-----|


  Q.     E  S S S S    H.              H        E  E     H.            
--------------------|---------------|-----------------|---------------|
----------------1---|--2------------|-----------------|---------------|
--2------2--4-------|---------------|--2-----------2--|---------------|
--------------------|---------------|-----------3-----|--0------------|


  Q.     E  S S S S    H.              Q.     Q.          H.            
--------------------|---------------|----------------|-----------------|
--------------------|---------------|----------------|--6g8------------|
---------2--1---0---|---------------|---------6------|-----------------|
--------------------|--4------------|----------------|-----------------|


  H.                                                                            
---------------|-------|-------|-------|-------|-------|-------|-------|-------|
--9------------|-------|-------|-------|-------|-------|-------|-------|-------|
---------------|-------|-------|-------|-------|-------|-------|-------|-------|
---------------|-------|-------|-------|-------|-------|-------|-------|-------|


-------|-------|-------|-------|-------||
-------|-------|-------|-------|-------||
-------|-------|-------|-------|-------||
-------|-------|-------|-------|-------||






Duration Legend
---------------
W - whole
H - half
Q - quarter
E - 8th
S - 16th
T - 32nd
X - 64th
. - note dotted
|-n-|  - n-tuplets


Tablature Legend
----------------
L - tied note
x - dead note
g - grace note
(n) - ghost note
> - accentuded note
NH - natural harmonic
AH - artificial harmonic
TH - tapped harmonic
SH - semi harmonic
PH - pitch harmonic
h - hammer on
p - pull off
b - bend
br - bendRelease
pb - preBend
pbr - preBendRelease
brb - bendReleaseBend
\n/ - tremolo bar dip
\n - tremolo bar dive
-/n - tremolo bar Release up
/n\ - tremolo bar inverted dip
/n - tremolo bar return
-\n - tremolo bar Release down
S - shift slide
s - legato slide
/ -  slide into from below or out of upwards
\ -  slide into from above or out of downwards
~ - vibrato
W - wide vibrato
tr - trill
TP - tremolo picking
T - tapping
S - slap
P - pop
< - fade in
^ - brush up
v - brush down
Login or Register to remove this ad.

2 comments on Stirring The Forest (Quartet)

Holy mackerel! After playing

5

Holy mackerel!
After playing most of kbear's tabs, and there hasnt been any for awhile now...
boy do i miss the kbear's work...
your tabs have been filling the void, thanks!

too bad i can't find another 3 people to play with me...

how are u kbear? hang in there buddy!

Kabuki made a fucking great

Kabuki made a fucking great arrangement a few days ago.
Take a look at it : http://www.gametabs.net/arcade/donkey-kong/level-1-0