Ads

Song of Memories (Final Fantasy IX) Guitar Tab

Submitted: Mar 17, 2009 by DuoDn

5
Average: 5 (2 votes)
Download | Listen
Game: Final Fantasy IX
Composer(s): Nobuo Uematsu
Style: 2 or more instruments, Arrangement
Series: Final Fantasy

AutoScroll: Slow | Medium | Fast
                            FFIX - Song of Memories                             


                         Arranged by Blake Hauser (DuoDn)
Lead



     W                     W                   W                 
E||-------------------||--------------------|-------------------|
B||-------------------||--------------------|-------------------|
G||-------------------||*-------------------|-------------------|
D||-------------------||*-------------------|-------------------|
A||-------------------||--------------------|-------------------|
E||-------------------||--------------------|-------------------|


  H        Q    Q       H        E  E  E  E     E  E  E  E  Q.     S S  
---------------------|-----------------------|-------------------------|
---------------------|-----------------------|-----------1-------------|
---------------------|--------------0--3-----|--2--0--2-----0------0-2-|
---------------------|-----------3--------2--|-------------------------|
---------------------|-----------------------|-------------------------|
---------------------|-----------------------|-------------------------|


  E  E  E  E  Q.     E     E  E  E  E  E  E  E  E     E  E  E  E  Q.     E   
------------------------|--------------------------|------------------------|
-----------3------------|--3--1--1-----------------|------------------------|
--3--2--3-----2---------|--------2--3--3--2--0--2--|--3--------0------------|
---------------------3--|--------------------------|--------3-----2---------|
------------------------|--------------------------|-----5--5------------3--|
------------------------|--------------------------|------------------------|


  E  E  E  E  Q.     S S    E  E  E  E  Q    Q       E  E  E  E  H         
-------------------------|------------------------|-----------------------|
-----------1-------------|-----------1--3----1----|-----------------------|
--2--0--2-----0------0-2-|--3--2--3---------------|--3--2--2--0--0--------|
--3----------------------|------------------------|-----------------------|
-------------------------|------------------------|-----------------------|
-------------------------|------------------------|-----------------------|


  E  E  E  E  E  E  E  E     Q    E  E  Q.     E     E  E  E  E  Q.     E   
--------------------------|-----------------------|------------------------|
--1-----------------------|-----------------------|------------------------|
-----3--3--2--2--0--------|-------0--2------------|------------------------|
--------------------3--2--|--3----------2------2--|--2--3--2-----0------0--|
--------------------------|-----------------------|-----------3------------|
--------------------------|-----------------------|------------------------|


  E  E  E  E  Q    E  E     S S E  H.              Q    E  E  Q    E  E   
-------------------------|----------------------|------------------------|
-------------------------|----------------------|-------------1----------|
--3--2--2--0--0----------|------0--L------------|-------0--2-------2-----|
-------------------3--0--|--2-3-----------------|--3------------------2--|
-------------------------|----------------------|------------------------|
-------------------------|----------------------|------------------------|


  W                   E  E  E  E  H           E  E  E  E  E  E  E  E   
-------------------|-----------------------|--------------------------|
-------------------|-----------------------|--1-----------------------|
-------------------|--3--2--2--0--0--------|-----3--3--2--2--0--2--3--|
--0----------------|-----------------------|--------------------------|
-------------------|-----------------------|--------------------------|
-------------------|-----------------------|--------------------------|


  W                   Q.     E  E  E  E  E     E  E  E  E  E  E  E  E   
-------------------|------------------------|--------------------------|
--1----------------|--L---------------------|--------------------------|
-------------------|---------2--3--2-----0--|--0--------------0--2--3--|
-------------------|------------------2-----|-----3--3--2--3-----------|
-------------------|------------------------|--------------------------|
-------------------|------------------------|--------------------------|


  H        Q    Q                
----------------------||-------||
----------------------||-------||
--2--------2---------*||-------||
----------------2----*||-------||
----------------------||-------||
----------------------||-------||




Duration Legend
---------------
W - whole
H - half
Q - quarter
E - 8th
S - 16th
T - 32nd
X - 64th
. - note dotted
|-n-|  - n-tuplets


Tablature Legend
----------------
L - tied note
x - dead note
g - grace note

                            FFIX - Song of Memories                             


                         Arranged by Blake Hauser (DuoDn)
Backing



     E  E  E  E  E  E  E  E       E  E  E  E  E  E  E  E   
E||--------------------------||---------------------------|
B||--------------------------||---------------1-----------|
G||--------------0-----------||*--------------3-----0-----|
D||-----------3-----3--2-----||*--------0--3-----3--------|
A||-----0--3-----------3--0--||------1--------------0--1--|
E||--1-----------------------||---1-----------------------|


                                         ^    ^                             
  E  E  E  E  E  E  E  E     E  E  E  E  Q    Q       H        E  E  E  E   
--------------------------|------------------------|-----------------------|
--------------------------|------------------------|-----------------------|
--------------0-----------|--------------5----3----|--L--------------------|
-----------3-----3--2-----|-----------3--4----3----|--L--------------------|
-----0--3-----------3--0--|-----1--4-----4----4----|--L--------1--0--------|
--1-----------------------|--1---------------------|-----------------3--0--|


  ^        ^           ^        ^           ^        ^    ^     
  H        H           H        H           H        Q    Q     
--------------------|--------------------|---------------------|
--------------------|--------------------|---------------------|
--2--------0--------|--0--------2--------|--3-------------2----|
--3--------3--------|--0--------3--------|--0--------3---------|
--3--------3--------|--1--------0--------|--1--------0----3----|
--1--------1--------|--3--------1--------|--1-------------3----|


  ^        ^                                                           
  H        H           E  E  Q    E  E  Q       E  E  E  E  Q    Q     
--------------------|------------------------|------------------------|
--------------------|------------------------|------------------------|
--0-----------------|------------------------|-------------------2----|
--0-----------------|-------------------2----|--------3--2--1---------|
--1--------1--------|-----0--3-------3-------|-----1-------------3----|
--3--------0--------|--1----------1----------|--3---------------------|


  Q    Q    H           Q    Q    Q    Q       E  E  Q    E  E  Q     
---------------------|----------------------|------------------------|
---------------------|----------------------|------------------------|
---------------------|--2-------------------|------------------------|
--3----3----2--------|--3----3----2---------|------------------------|
--5----0-------------|-------3---------1----|-----0--3----0--2--3----|
------------3--------|----------------------|--1---------------------|


  H        Q    E  E     E  E  Q    E  E  Q       H        E  E  E  E   
----------------------|------------------------|-----------------------|
----------------------|------------------------|-----------------------|
----------------------|------------------------|-----------------------|
----------------------|--------0----------0----|--------------0-----2--|
--1--------1----1--0--|-----1----------3-------|--3--------1-----3-----|
----------------------|--3----------1----------|-----------------------|


  E  E  Q    E  E  Q       E  E  E  E  Q    E  E     H.           E  E   
------------------------|-------------------------|---------------------|
------------------------|-------------------------|---------------------|
------------------------|-------------------------|--0------------------|
------------------------|-------------------------|--0------------0--3--|
-----0--3----0--2--3----|--1--3--1--0--1----1--0--|--1------------------|
--1---------------------|-------------------------|--3------------------|


  W                   E  E  E  E  E  E  E  E     W                 
-------------------|--------------------------|-------------------|
-------------------|--------------------------|-------------------|
-------------------|--------0--3--0-----------|-------------------|
--1----------------|-----3-----------3--0--3--|--2----------------|
--3----------------|--3-----------------------|-------------------|
--3----------------|--------------------------|--3----------------|


                                                          ^                  
  E  E  E  E  E  E  E  E     E  E  E  E  E  E  E  E       W                  
--------------------------|---------------------------||--1----------------||
--------------------------|---------------------------||--1----------------||
--------------------------|--------------------------*||--2----------------||
--------0-----------------|-----------3--5--3--------*||--3----------------||
-----1-----3--1-----3--1--|-----0--3-----------3--0---||--3----------------||
--1--------------3--------|--1------------------------||--1----------------||




Duration Legend
---------------
W - whole
H - half
Q - quarter
E - 8th
S - 16th
T - 32nd
X - 64th
. - note dotted
|-n-|  - n-tuplets


Tablature Legend
----------------
L - tied note
x - dead note
g - grace note
(n) - ghost note
> - accentuded note
NH - natural harmonic
AH - artificial harmonic
TH - tapped harmonic
SH - semi harmonic
PH - pitch harmonic
h - hammer on
p - pull off
b - bend
br - bendRelease
pb - preBend
pbr - preBendRelease
brb - bendReleaseBend
\n/ - tremolo bar dip
\n - tremolo bar dive
-/n - tremolo bar Release up
/n\ - tremolo bar inverted dip
/n - tremolo bar return
-\n - tremolo bar Release down
S - shift slide
s - legato slide
/ -  slide into from below or out of upwards
\ -  slide into from above or out of downwards
~ - vibrato
W - wide vibrato
tr - trill
TP - tremolo picking
T - tapping
S - slap
P - pop
< - fade in
^ - brush up
v - brush down

Login or Register to remove this ad.

2 comments on Song of Memories

wow

5

i rate at 5star

but how can i play both at once?

i have no friend with guitar to play wwith

=]

Its possible to play both at once if you combine the two into one. You might have to do some juggling of the melody though when the accompaniment interferes, but its not to hard to move around. I might tab the solo version I play sometime if you like though since I have such little free time it might not happen for awhile =/