Melodies of Life (Final Fantasy IX) Guitar Tab

Submitted: Feb 14, 2009 by TheDoomOfAllFires (Last updated: Jan 15, 2010)

4.809525
Average: 4.8 (21 votes)
Download | Listen
Game: Final Fantasy IX
Composer(s): Nobuo Uematsu
Style: Arrangement, Fingerstyle
Series: Final Fantasy

AutoScroll: Slow | Medium | Fast
Final Fantasy IX - Melodies Of Life
Arranged* by TheDoomOfAllFires, 02/13/2009

*Based on the official arrangement


Standard Tuning
Bpm=68

Capo. 2



                 ^              ^        ^               
     E  E  E  E  Q.     S  S    E  E  E  E  Q.     S  S  
E||--2-----0-----------------|---------------------0h-2-|
B||-----3-----2--3------0h-2-|--3--2--0-----------------|
G||--------2-----------------|--0--------2--L-----------|
D||--0-----------4-----------|--------0-----------------|
A||--------------2-----------|-----------4--L-----------|
E||--------------------------|--3--------2--L-----------|


                                  ^                                            
  E  E  E  E  E  E  E  E     Q    Q    E  E  E  E     E  E  E  E  E  E  E  E   
--3--2-----2--0-----2-----|-------0----3--2--0-----|--------0-----------------|
--------3--------------3--|--3------------------3--|--------------3-----3-----|
--------0--------------2--|--3----3----3--2--0-----|-----2-----2-----2-----2--|
-----------------2--------|-------5-------------4--|--0-----------------------|
--------------0-----------|------------------------|--------------------------|
--0-----------------------|--3---------------------|--------------------------|


              ^                                                               
  E  E  E  E  Q    Q       E  E  E  E  E  E  E  E     E  E  E  E  Q    E  E   
--------0---------------|--2-----2--0--------------|-----------0-------------|
--------------3---------|--------------3-----3--2--|--0--2--3----------------|
-----2-----2--2----2----|-----2--------4--------2--|--0-----------2-------2--|
--0-----------0---------|--0--------------4--------|--------0----------4-----|
------------------------|--------------2-----------|--------------4----------|
------------------------|--------------------------|--3-----------2----------|


                              ^           ^           
  E  E  E   E  E  E  E  E     E  E  E  E  Q    E  E   
------------------------2--|--3--2-----2--0-------2--|
--0--2--3p--0--------3-----|--0-----3----------------|
---------------4--2--------|--------4-----2----------|
--0------------------------|-------------------------|
---------------4-----------|--------------4----0-----|
--3------------2-----------|--0----------------------|


                             ^           ^            
  E  E  E  E  E  E  E  E     E  E  E  E  Q.     S  S  
--5-----5--7--5--3--3--2--|--2--0--0--2--3------2p-0-|
--------------------------|--------------------------|
--------------------0-----|--4-----0--2--3-----------|
--------4-----------------|--------------------------|
-----4--------2-----------|--------------------------|
--2-----------------------|--0-----------3-----------|


                               ^       ^                                        
  E  E  E  S S E  E  E  S S    Q    E  Q    Q    E     E  E  E  E  E  E  E  E   
--------------------------0-|--2----3--0------------|--------0-----------------|
--3-----3----0-3--------3---|----------3----2-------|--------------3-----3-----|
-----2-----2---------0------|--0----4--2----2----2--|-----2-----2-----2--------|
--0---------------0---------|--0-------2------------|--0--------------------4--|
----------------------------|----------0----0-------|--------------------------|
---------------3------------|--3--------------------|--------------------------|


  E  E  E  E  E  E  E  E     E  E  E  E  Q    E  E   
--2-----2--0--------------|-----------0-------------|
--------------3-----3--2--|--0--2--3----------------|
-----2--------4--------2--|--0-----------2-------2--|
--0--------------4--------|--------0----------4-----|
--------------2-----------|--------------4----------|
--------------------------|--3-----------2----------|


                              ^           ^           
  E  E  E   E  E  E  E  E     E  E  E  E  Q    E  E   
------------------------2--|--3--2-----2--0-------2--|
--0--2--3p--0--------3-----|--0-----3----------------|
---------------4--2--------|--------4-----2----------|
--0------------------------|-------------------------|
---------------4-----------|--------------4----0-----|
--3------------2-----------|--0----------------------|


                             ^           ^            
  E  E  E  E  E  E  E  E     E  E  E  E  Q.     S  S  
--5-----5--7--5--3--3--2--|--2--0--0--2--3------2p-0-|
--------------------------|--------------------------|
--------------------0-----|--4-----0--2--3-----------|
--------4-----------------|--------------------------|
-----4--------2-----------|--------------------------|
--2-----------------------|--0-----------3-----------|


                                  ^                   
  E  E  E  S S E  E  S S  S  S    H        Q    Q     
-----------------------0h-2p-0-|-----------0---------|
--3-----3----0-3---------------|--3-------------3----|
-----2-----2---------0---------|--2------------------|
--0---------------0------------|--0--------2----4----|
-------------------------------|---------------------|
---------------3---------------|-----------0----2----|


                             ^                        
  E  E  E  E  E  E  E  E     S  S Q    S S Q    Q     
--------------3--2--0-----|-------0------------------|
--3-----0-----3--------3--|--2h-3---------------2----|
-----------0--------2-----|-------2------------------|
-----0--------------------|--2-----------------------|
--------------------------|--0---------0-2-4---------|
--3-----------------------|--------------------------|


                             ^                          ^    ^    ^          
  E  E  E  E  E  E  E  E     S S  Q.     E  E  E  E     Q    Q    Q.     E   
-----------2--5--3--2--0--|----0h-2---------------2--|--3----2----0---------|
--------2-----------2-----|--4-----------------4-----|--0----0----1---------|
--------2-----2-----------|-----------------------4--|------------0---------|
-----4--------------------|--4--------------4--------|--2----0--------------|
--------------------4-----|--2-----------2-----------|------------3------2--|
--2-----------2-----------|--------------------------|----------------------|


              ^              ^                      ^        ^         
  E  E  E  E  E  E  E  E     H        Q    E  E     H        H         
-----2--3--2--0-----------|--2-------------5--3--|--0-----------------|
-----------------3--2--3--|-----------0----------|-----------2--------|
--------2-----------------|--0--------0----------|--2--------2--------|
--------------4-----4-----|--0-------------------|--2-----------------|
--0-----------2-----------|----------------------|--0--------0--------|
--------------------------|--3--------3----------|--------------------|


                                                       ^                        
  E  E  E  E  E  E  E  E     E  E  E  E  Q    E  E     E  E  E  E  Q    E   E   
--------0--2--------------|-------------------------|--3--2--2-----0-----------|
--3-----------2-----------|--2--3--2-----0----------|--0-----------0----3p--0--|
-----2-----2--------2-----|--0--------2-------------|-----------0--------------|
--0-----------------4-----|--------------0----------|--------2-----------------|
-----------------4-----4--|-----------0-------------|--------------------------|
--------------2-----------|--3-----------3----3--2--|--0-----------------------|


  ^                                                                             
  S  S Q    Q    Q    E     E  E  E  E  E  E  E  E     E  E  E  E  E  E  E  E   
-------0-----------------|--------0--2--5-----2-----|--------------------------|
--2h-3-------------------|--3-----3-----2--------2--|--0--------------0--2--3--|
----------------------2--|-----2--------2--------2--|--0-----0-----------2--4--|
--2--------------2-------|--0--------------4--------|-----0-----4--2--0--------|
--0---------0------------|--------------------------|--------------------4--2--|
-------------------------|--------------2-----------|--3-----------------------|


  ^                           ^                          ^                 
  E   E  E  E  E  E  E  E     E  E  E  E  E  E  E  E     W                 
--3p--2--2--0--0--------0--|--5--3--3--2--2--0--2--3--|--5----------------|
--0------------------0-----|--------1-----------------|--2----------------|
------------------0--------|--0-----0--------------0--|--2----------------|
---------------2-----------|-----------------2--------|--2----------------|
---------2-----------------|--3-----------3-----------|--0----------------|
--0------------------------|--------------------------|-------------------|


  ^                        ^           ^         
  Q    Q    E  E  E  E     E  E  E  E  H         
-------2----3--2-----0--|--0--------------------|
------------------2-----|-----------3--3--------|
--2------------------2--|--2-----2-----2--------|
--2---------------2-----|--0--4--------0--------|
--0---------0--4--------|-----------------------|
------------------------|-----------------------|


                                                     ^       ^                  
  S S S  S S S S  S E  E  E  E     E  E  E  E  E  E  Q       W                  
---------------3h-5-7-----5-----|--3-----2-----0----------|--5----------------||
-------------3---------------3--|-----0-----0--------3----|--5----------------||
------0h-2-4-----------7--------|-----------------0--4----|--7----------------||
----0---------------5-----4-----|--2-----0-----------5----|--0----------------||
--------------------------------|--------------3-----0----|-------------------||
--3-----------------------------|-------------------------|-------------------||




Duration Legend
---------------
W - whole
H - half
Q - quarter
E - 8th
S - 16th
T - 32nd
X - 64th
. - note dotted
|-n-|  - n-tuplets


Tablature Legend
----------------
L - tied note
x - dead note
g - grace note
(n) - ghost note
> - accentuded note
NH - natural harmonic
AH - artificial harmonic
TH - tapped harmonic
SH - semi harmonic
PH - pitch harmonic
h - hammer on
p - pull off
b - bend
br - bendRelease
pb - preBend
pbr - preBendRelease
brb - bendReleaseBend
\n/ - tremolo bar dip
\n - tremolo bar dive
-/n - tremolo bar Release up
/n\ - tremolo bar inverted dip
/n - tremolo bar return
-\n - tremolo bar Release down
S - shift slide
s - legato slide
/ -  slide into from below or out of upwards
\ -  slide into from above or out of downwards
~ - vibrato
W - wide vibrato
tr - trill
TP - tremolo picking
T - tapping
S - slap
P - pop
< - fade in
^ - brush up
v - brush down
Login or Register to remove this ad.

8 comments on Melodies of Life

wow wow wow wow wow

5

ZOMG ZOMG

This is 10/5 stars, you are awesome dude, you rock!!!!!!!!!!!! yeesssssssssssssssssss thank youuuuuuu!!!!!!!!!!!!!!!!!!!!!!!!!!!!!!!!!!!!!!!!!!!!!!!!!!!!!!!!!!!!!!!!

I agree

5

This is really pretty ^-^

Good Job man I love your

Good Job man I love your tabs

I really like what you made

I really like what you made out of the official arrangement, but those highlighted bass notes sound a little off to me.

     E  E  E  E  Q.     S  S    E  E  E  E  Q.     S  S  
E||--2-----0-----------------|---------------------0h-2-|
B||-----3-----2--3------0h-2-|--3--2--0-----------------|
G||--------2-----------------|--0--------2--L-----------|
D||--0-----------4-----------|--------0-----------------|
A||--------------2-----------|-----------4--L-----------|
E||--------------------------|--3--------2--L-----------| Instead of G play E
                                  ^                                            
  E  E  E  E  E  E  E  E     Q    Q    E  E  E  E
--3--2-----2--0-----2-----|-------0----3--2--0-----|
--------3--------------3--|--3------------------3--|
--------0--------------2--|--3----3----3--2--0-----|
-----------------2--------|-------5-------------4--|
--------------0-----------|------------------------|
--0-----------------------|--3---------------------| Instead of A play F#

I also checked the official arrangement again; and it's correct there. Why did you change them? :o

I think it's easier to play

I think it's easier to play (for my fingerings) like this and I like the way it sounds.

great

this is realy nice tab

T,T

5

So beautiful. love ur arrangement.

i absolutely love this song,

i absolutely love this song, and i love this arrangement, and i love this tab. thank you, my man!