We Are Thieves! (Final Fantasy IX) Guitar Tab

Submitted: Oct 01, 2007 by archard

3.75
Average: 3.8 (4 votes)
Download | Listen
Game: Final Fantasy IX
Composer(s): Nobuo Uematsu
Style: Transcription
Series: Final Fantasy

AutoScroll: Slow | Medium | Fast
We Are Thieves!
Final Fantasy IX
Composed by Nobuo Uematsu

8/26/06

e----------0-0--0------------1--------
B----1-2-4----------4-4--4------2-----
G--3------------------------------3--3
D-------------------------------------
A-------------------------------------
E-------------------------------------

e----------0-0--0----------1--1-2--1--2--4--6
B----1-2-4----------4--2-4-------------------
G--3-----------------------------------------
D--------------------------------------------
A--------------------------------------------
E--------------------------------------------

Not sure about anything else...
Login or Register to remove this ad.

3 comments on We Are Thieves!

Simple and note-perfect. I

Simple and note-perfect. I like it.

its good, now can you do the

4

its good, now can you do the Tantalus Theme?

yeah... Really good too

yeah... Really good too