Vamo Alla Flamenco (Final Fantasy IX) Guitar Tab

Submitted: Oct 01, 2007 by archard (Last updated: Sep 16, 2009)

4.19355
Average: 4.2 (31 votes)
Download | Listen
Game: Final Fantasy IX
Composer(s): Nobuo Uematsu
Style: Transcription
Series: Final Fantasy

AutoScroll: Slow | Medium | Fast
Vamo Alla Flamenco
Final Fantasy IX
Composed by Nobuo Uematsu

7/28/06

e-------------------------------------------
B--------1-0---0----------------1-0---3--0--
G--2-1-2-----2----1-----1-2-1-2-----2------0
D-------------------2-4---------------------
A-------------------------------------------
E-------------------------------------------

e--------0------------------------------
B--1-0-1---3-1-3--0-----0-1---0---------
G-------------------0-2------------2-1-2
D---------------------------------------
A---------------------------------------
E---------------------------------------

e----0-5--5-4-2-4-5--5-7-5-7-5-7-5-4-2-4-5
B--1--------------------------------------
G-----------------------------------------
D-----------------------------------------
A-----------------------------------------
E-----------------------------------------

e----0-5--5-4-2-4-5--5-10-8-7-5-7-5-4
B--1---------------------------------
G------------------------------------
D------------------------------------
A------------------------------------
E------------------------------------
Login or Register to remove this ad.

20 comments on Vamo Alla Flamenco

Great job! I've been looking

Great job! I've been looking forever to find this song.

Thanks a lot!

Great tune

Great tune

Pretty nice. but you could

Pretty nice. but you could have finished it all u know.

Awesome. I'd like you to

Awesome. I'd like you to finish it though

Dude thank you! i have

Dude thank you! i have looked everywhere, but its always too confusing to me.

Dude, baddass i have looked

Dude, baddass i have looked every where for this tab!!!

Great job !

Great job !

dude, you suck at this kind

1

dude, you suck at this kind of thing dont you?

aww, just cuse you fail at

aww, just cuse you fail at guitar doesn't mean everyone else has to. run along now kido.

oh and nice job on the tab arch.

amazing tab, really

amazing tab, really accurate, but just for kicks, i like to play instead of ---

5-10-8-7-5-7-5-4

i like to play 5-10-8-7-8-7-5-7-5-4-5 at the very end, sounds better for me heh, but really great tab

yea, hahayouwish, you fail

5

yea, hahayouwish, you fail at life, just because you can't even get close to playing this on a real guitar, I bet not even in guitar hero on easy are you able to play this, doesn't mean archard sucks at tabbing, heck he's probably the best tabber in this site... go run along, fall down a ditch, and die please

btw archard, awesome tab, definitely one of my favorite Final Fantasy songs, thanks :D

This is what happens when

This is what happens when everyone is allowed to vote.

Buen trabajo. Encontre este

4

Buen trabajo.
Encontre este video y quisiera q si alguien pudiera sacar las tablaturas de la cancion entera las publique porfavor.
http://es.youtube.com/watch?v=t84VarDJ4AI&feature=related
y d nuevo buen trabajo =)

That is a good way to play

4

That is a good way to play it, but please check out my version in the submissions forum and tell me what you think.
Good job though!

Good job! But...

5

Great Tab Archard! But why didn't you do the parts after that? Oh well, very well done anyway!

its ok

3

but you shouldve included the chords and the strumming at the start

I have the chords

at the start the chords are,

AM

1
1
2
2
0
x

2
1
2
2
0
x

1
1
2
2
0
x

AM

This is the chords for the inrto

Nice little tab. it gives us

Nice little tab. it gives us a simple melodic version of the song. A wonderful tab for beginning guitarists.

tnx im a begginer nad rly

2

tnx im a begginer nad rly helps

rly easy tnx

5

rly easy tnx