Ads

Souless Village - Bran Bal (Final Fantasy IX) Guitar Tab

Submitted: Mar 18, 2008 by Zelos (Last updated: Oct 04, 2009)

5
Average: 5 (3 votes)
Download | Listen
Game: Final Fantasy IX
Composer(s): Nobuo Uematsu
Style: 2 or more instruments, Transcription
Series: Final Fantasy

AutoScroll: Slow | Medium | Fast
Souless Village - Bran Bal    
~Final Fantasy IX~
Composed by: Nobuo Uematsu
Arranged by: Zelos                                 


Guitar I
BPM = 100  
Difficulty: Easy (8th notes with some small chords)



      Q    Q    Q       Q    Q    Q       H.              H.            
E||---0----1----0----|--3----1----0----|---------------|---------------|
B||------------------|-----------------|--4------------|--L------------|
G||*-----------------|-----------------|---------------|---------------|
D||*-----------------|-----------------|---------------|---------------|
A||------------------|-----------------|---------------|---------------|
E||------------------|-----------------|---------------|---------------|


  Q    Q    Q       Q    Q    Q       H.              H.            
-----------------|--3----1---------|---------------|---------------|
--4----6----4----|------------4----|--3------------|--L------------|
-----------------|-----------------|---------------|---------------|
-----------------|-----------------|---------------|---------------|
-----------------|-----------------|---------------|---------------|
-----------------|-----------------|---------------|---------------|


  Q    Q    Q       Q    Q    Q       H.              H.            
-----------------|--1--------------|---------------|---------------|
--3----4----3----|-------4----3----|--1------------|--L------------|
-----------------|-----------------|---------------|---------------|
-----------------|-----------------|---------------|---------------|
-----------------|-----------------|---------------|---------------|
-----------------|-----------------|---------------|---------------|


  H.              H        Q       H.              H.            
---------------|----------------|---------------|---------------|
--1------------|----------------|--1------------|--L------------|
---------------|--1--------3----|---------------|---------------|
---------------|----------------|---------------|---------------|
---------------|----------------|---------------|---------------|
---------------|----------------|---------------|---------------|


  E  E  E  E  E  E     E  E  E  E  E  E     E  E  E  E  E  E   
--------0-----0-----|--------0-----0-----|--------3--1--3-----|
-----1-----3-----1--|-----1-----3-----1--|-----1-----------4--|
--------------------|--------------------|--------------------|
--------------------|--------------------|--------------------|
--------------------|--------------------|--------------------|
--------------------|--------------------|--------------------|


  E  E  E  E  E  E     E  E  E  E  E  E     E  E  E  E  E  E   
--------3--1--3-----|--------------------|--------------------|
-----4-----------4--|--------4--3--4-----|--------4--3--4-----|
--------------------|-----5--5--3--5--5--|-----5--5--3--5--5--|
--------------------|-----------------6--|-----------------6--|
--------------------|--------------------|--------------------|
--------------------|--------------------|--------------------|


  E  E  E  E  E  E     E  E  E  E  E  E     E  E  E  E  E  E   
--------------------|--------------------|--------------------|
--------6--4--6-----|--------6--4--6-----|--------3--1--3-----|
-----5-----------5--|-----5-----------5--|-----3--3--2--3--3--|
--------------------|--------------------|-----------------5--|
--------------------|--------------------|--------------------|
--------------------|--------------------|--------------------|


  E  E  E  E  E  E     E  E  E  E  E  E     E  E  E  E  E  E   
--------------------|--------------------|--------------------|
--------3--1--3-----|--------4--3--4-----|--------4--3--4-----|
-----3--3--2--3--3--|-----5-----------5--|-----5-----------5--|
-----------------5--|--------------------|--------------------|
--------------------|--------------------|--------------------|
--------------------|--------------------|--------------------|


  E  E  E  E  E  E     E  E  E  E  E  E     E  E  E  E  E  E   
--------------------|--------------------|--------------------|
--------6--4--6-----|--------6--4--6-----|--------5--3--5-----|
-----5--5--3--5--5--|-----5--5--3--5--5--|-----0-----------5--|
-----------------6--|-----------------6--|--------------------|
--------------------|--------------------|--------------------|
--------------------|--------------------|--------------------|


  E  E  E  E  E  E     Q.      E  Q       H        Q       Q.     E  Q     
--------------------|--8------10--8----|----------------|-----------------|
--------5--3--5-----|------------------|--9--------9----|--8---------6----|
-----0-----------5--|------------------|----------------|---------8-------|
--------------------|------------------|----------------|-----------------|
--------------------|------------------|----------------|-----------------|
--------------------|------------------|----------------|-----------------|


  H        Q       Q    Q    Q       Q.     E  Q       H.            
----------------|--6----8----6----|-----------------|---------------|
--8--------8----|-----------------|--8---------6----|--8------------|
----------------|-----------------|---------8-------|---------------|
----------------|-----------------|-----------------|---------------|
----------------|-----------------|-----------------|---------------|
----------------|-----------------|-----------------|---------------|


  H.              Q.      E  Q       H        Q       Q.     E  Q     
---------------|--8------10--8----|----------------|-----------------|
--8------------|------------------|--9--------9----|--8---------6----|
---------------|------------------|----------------|---------8-------|
---------------|------------------|----------------|-----------------|
---------------|------------------|----------------|-----------------|
---------------|------------------|----------------|-----------------|


  H        Q       Q    Q    Q       Q.     E  Q       H.            
----------------|--6----8----6----|-----------------|---------------|
--8--------8----|-----------------|--8---------6----|--8------------|
----------------|-----------------|---------8-------|---------------|
----------------|-----------------|-----------------|---------------|
----------------|-----------------|-----------------|---------------|
----------------|-----------------|-----------------|---------------|


  H.              
----------------||
--8-------------||
---------------*||
---------------*||
----------------||
----------------||




Duration Legend
---------------
W - whole
H - half
Q - quarter
E - 8th
. - note dotted


Tablature Legend
----------------
L - tied note







---------------------------------------------------------------








Guitar II
BPM = 100  
Difficulty: Easy (8th notes, just some backing)



      E  E  E  E  E  E     E  E  E  E  E  E     E  E  E  E  E  E   
E||---------------------|--------------------|--------------------|
B||------------1--------|-----------1--------|-----------4--------|
G||*--------2-----2-----|--------2-----2-----|--------5-----5-----|
D||*-----2-----------2--|-----2-----------2--|-----5-----------5--|
A||---0-----------------|--0-----------------|--3-----------------|
E||---------------------|--------------------|--------------------|


  E  E  E  E  E  E     E  E  E  E  E  E     E  E  E  E  E  E   
--------------------|--------------------|--------------------|
-----------4--------|--------------------|--------------------|
--------5-----5-----|-----------5--------|-----------5--------|
-----5-----------5--|--------6-----6-----|--------6-----6-----|
--3-----------------|-----6-----------6--|-----6-----------6--|
--------------------|--4-----------------|--4-----------------|


  E  E  E  E  E  E     E  E  E  E  E  E     E  E  E  E  E  E   
--------------------|--------------------|--------------------|
--------------------|--------------------|--------------------|
-----------1--------|-----------1--------|-----------3--------|
--------3-----3-----|--------3-----3-----|--------5-----5-----|
-----3-----------3--|-----3-----------3--|-----5-----------5--|
--1-----------------|--1-----------------|--3-----------------|


  E  E  E  E  E  E     E  E  E  E  E  E     E  E  E  E  E  E   
--------------------|--------------------|--------------------|
--------------------|--------------------|--------------------|
-----------3--------|-----------5--------|-----------5--------|
--------5-----5-----|--------6-----6-----|--------6-----6-----|
-----5-----------5--|-----6-----------6--|-----6-----------6--|
--3-----------------|--4-----------------|--4-----------------|


  E  E  E  E  E  E     E  E  E  E  E  E     E  E  E  E  E  E   
--------------------|--------------------|--------------------|
--------------------|--------------------|-----------5--------|
-----------1--------|-----------1--------|--------5-----5-----|
--------3-----3-----|--------3-----3-----|-----5-----------5--|
-----3-----------3--|-----3-----------3--|--3-----------------|
--1-----------------|--1-----------------|--------------------|


  E  E  E  E  E  E     E  E  E  E  E  E     E  E  E  E  E  E   
--------------------|--------------------|--------------------|
-----------5--------|-----------1--------|-----------1--------|
--------5-----5-----|--------2-----2-----|--------2-----2-----|
-----5-----------5--|-----2-----------2--|-----2-----------2--|
--3-----------------|--0-----------------|--0-----------------|
--------------------|--------------------|--------------------|


  E  E  E  E  E  E     E  E  E  E  E  E     E  E  E  E  E  E   
--------------------|--------------------|--------------------|
-----------4--------|-----------4--------|--------------------|
--------5-----5-----|--------5-----5-----|-----------5--------|
-----5-----------5--|-----5-----------5--|--------6-----6-----|
--3-----------------|--3-----------------|-----6-----------6--|
--------------------|--------------------|--4-----------------|


  E  E  E  E  E  E     E  E  E  E  E  E     E  E  E  E  E  E   
--------------------|--------------------|--------------------|
--------------------|--------------------|--------------------|
-----------5--------|-----------1--------|-----------1--------|
--------6-----6-----|--------3-----3-----|--------3-----3-----|
-----6-----------6--|-----3-----------3--|-----3-----------3--|
--4-----------------|--1-----------------|--1-----------------|


  E  E  E  E  E  E     E  E  E  E  E  E     E  E  E  E  E  E   
--------------------|--------------------|--------------------|
--------------------|--------------------|--------------------|
-----------3--------|-----------3--------|-----------5--------|
--------5-----5-----|--------5-----5-----|--------6-----6-----|
-----5-----------5--|-----5-----------5--|-----6-----------6--|
--3-----------------|--3-----------------|--4-----------------|


  E  E  E  E  E  E     E  E  E  E  E  E     E  E  E  E  E  E   
--------------------|--------------------|--------------------|
--------------------|--------------------|--------------------|
-----------5--------|-----------1--------|-----------1--------|
--------6-----6-----|--------3-----3-----|--------3-----3-----|
-----6-----------6--|-----3-----------3--|-----3-----------3--|
--4-----------------|--1-----------------|--1-----------------|


  E  E  E  E  E  E     E  E  E  E  E  E     E  E  E  E  E  E   
--------------------|--------------------|--------------------|
-----------5--------|-----------5--------|-----------1--------|
--------5-----5-----|--------5-----5-----|--------2-----2-----|
-----5-----------5--|-----5-----------5--|-----2-----------2--|
--3-----------------|--3-----------------|--0-----------------|
--------------------|--------------------|--------------------|


  E  E  E  E  E  E     E  E  E  E  E  E     E  E  E  E  E  E   
--------------------|--------------------|--------------------|
--------------------|-----------4--------|--------------------|
-----------1--------|--------5-----5-----|-----------3--------|
--------3-----3-----|-----5-----------5--|--------5-----5-----|
-----3-----------3--|--3-----------------|-----5-----------5--|
--1-----------------|--------------------|--3-----------------|


  E  E  E  E  E  E     E  E  E  E  E  E     E  E  E  E  E  E   
--------------------|--------------------|--------------------|
-----------8--------|--------------------|--------------------|
--------8-----8-----|-----------2--------|-----------5--------|
-----8-----------8--|--------3-----3-----|--------5-----5-----|
--6-----------------|-----3-----------3--|-----5-----------5--|
--------------------|--1-----------------|--3-----------------|


  E  E  E  E  E  E     E  E  E  E  E  E     E  E  E  E  E  E   
--------------------|--------------------|--------------------|
--------------------|-----------4--------|-----------6--------|
-----------4--------|--------5-----5-----|--------6-----6-----|
--------5-----5-----|-----5-----------5--|-----6-----------6--|
-----5-----------5--|--3-----------------|--4-----------------|
--3-----------------|--------------------|--------------------|


  E  E  E  E  E  E     E  E  E  E  E  E     E  E  E  E  E  E   
--------------------|--------------------|--------------------|
-----------8--------|--------------------|-----------8--------|
--------8-----8-----|-----------3--------|--------8-----8-----|
-----8-----------8--|--------5-----5-----|-----8-----------8--|
--6-----------------|-----5-----------5--|--6-----------------|
--------------------|--3-----------------|--------------------|


  E  E  E  E  E  E     E  E  E  E  E  E     E  E  E  E  E  E     
--------------------|--------------------|---------------------||
--------------------|--------------------|---------------------||
-----------2--------|-----------5--------|-----------4--------*||
--------3-----3-----|--------5-----5-----|--------5-----5-----*||
-----3-----------3--|-----5-----------5--|-----5-----------5---||
--1-----------------|--3-----------------|--3------------------||




Duration Legend
---------------
E - 8th
Login or Register to remove this ad.

2 comments on Souless Village - Bran Bal

Good

5

Good

nice

ok I really like this, the notes seem to be having a dialogue with each other. great work