Song of Memories (Final Fantasy IX) Guitar Tab

Submitted: Oct 01, 2007 by archard (Last updated: Sep 16, 2009)

5
Average: 5 (4 votes)
Download | Listen
Game: Final Fantasy IX
Composer(s): Nobuo Uematsu
Style: Transcription
Series: Final Fantasy

AutoScroll: Slow | Medium | Fast
Song of Memories
Final Fantasy 9
Composed by Nobuo Uematsu

8/9/06

e--------1-3-1------------1-6-1------------1-3-1------------1--8---6
B------1-------1--------3-------3--------1-------1--------2----9---8
G----2-----------2----3-----------3----2-----------2----3-----------
D--3----------------3----------------3----------------3-------------
A-------------------------------------------------------------------
E-------------------------------------------------------------------

e---------------------------------------------------------------------
B------------------1---------------3---------3-1-1--------------------
G--0-2-3-----2-0-2---0---0-2-3-2-3---2-------------3-3-2-0-2-3-----0--
D--------2---------------------------------3-------------------0-3---2
A---------------------------------------------------------------------
E---------------------------------------------------------------------

e----------------------------------------------------------------
B----------1---------------1-3--1-----------------1--------------
G----2-0-2---0---0-2-3-2-3----------3-2-2-0-0-------3-3-2-2-0----
D-------------------------------------------------------------3-2
A--3-------------------------------------------------------------
E----------------------------------------------------------------

e--------------------------------------------------------------
B--------------------------------------------------------------
G------0-2-----------------------3-2-2-0-0------------0--------
D--3-------2-----2-3-2---0-----0-------------3-0--2-3----------
A----------------------3---------------------------------------
E--------------------------------------------------------------

e-------------------------------------------------------
B----------1---------------------------1---------------1
G------0-2-----2---------3-2-2-0-0-------3-3-2-2-0-2-3--
D--3-------------2-0------------------------------------
A-------------------------------------------------------
E-------------------------------------------------------

e--------------------
B--------------------
G--2---3-2---0-0-----
D----------2------3-3
A--------------------
E--------------------
Login or Register to remove this ad.

5 comments on Song of Memories

Nice tab, I love this game

Nice tab, I love this game and all the music in it. Much thanks for this.

5 stars! love this tune i

5

5 stars!
love this tune
i love this site too, such a good place to find FF tabs

thanks for tabbing this im having great fun playing it =]
brings back great FF playing memories lol

Re: Song of Memories

5

I love singing this song :P

awesome... flat out awesome

love this song so much. tab is really good too. ty!

I LOVE IT!!!!!

I love your tabss mann
soundds very kool
in special this one
YOU RULEZZ!!