Qu's Marsh (Final Fantasy IX) Guitar Tab

Submitted: Oct 01, 2007 by archard

5
Average: 5 (3 votes)
Download | Listen
Game: Final Fantasy IX
Composer(s): Nobuo Uematsu
Style: Transcription
Series: Final Fantasy

AutoScroll: Slow | Medium | Fast
Qu's Marsh
Final Fantasy IX
Composed by Nobuo Uematsu

8/14/06

e----------------------------------------------------
B----------------------------------------------------
G----------------------------------------------------
D----------------------------------------------------
A--1------1-----1-1-----1-----1-----1---1---1-1-----1
E-----1-1-----------1-1---------1-1---1---1-----1-1--

e---------------------------------------------------
B---------------------------------------------------
G-------------0-1--0-------------------0------------
D--3--3-1-3-----------3-----3--3-1-3-----1--0-1-3---
A---------------------------------------------------
E---------------------------------------------------

e----------------------------------------
B----------------------------------------
G-------------0-1--0---------------------
D--3--3-1-3-----------3---1----3---------
A---------------------------4-----3---1-1
E---------------------------------------- x2

e------6------6------6---4-3-1---1
B----6------6------6-----------4--
G--3------3------3----------------
D---------------------------------
A---------------------------------
E--------------------------------- x2
Login or Register to remove this ad.

2 comments on Qu's Marsh

wow, really cool! i all ways

wow, really cool! i all ways loved hearing this song!

arr... the memories...

arr... the memories... catching frogs all over again