Protecting My Devotion (Final Fantasy IX) Guitar Tab

Submitted: Oct 01, 2007 by archard

4.625
Average: 4.6 (8 votes)
Download | Listen
Game: Final Fantasy IX
Composer(s): Nobuo Uematsu
Style: Transcription
Series: Final Fantasy

AutoScroll: Slow | Medium | Fast
Protecting My Devotion
Final Fantasy IX
Composed by Nobuo Uematsu

9/7/06

Intro
e-------------------------------------------------
B-------------------------------------------------
G-------------------------------------------------
D-------------------------------------------------
A--5-5-5--5-5-5--5-5-5--3-3-6--5-5-5--5-5-5--5-5-5
E--5-5-5--5-5-5--5-5-5--3-3-6--5-5-5--5-5-5--5-5-5

e---------------------------------------------------------------
B---------------------------------------------------------------
G---------------------------------------------------------------
D---------------------------------------------------------------
A--1-1-3--5-5-5--5-5-5--5-5-5--3-3-6--5-5-5--5-5-5--5-5-5--5-5-5
E--1-1-3--5-5-5--5-5-5--5-5-5--3-3-6--5-5-5--5-5-5--5-5-5--5-5-5

e----0-1-3--3-5-3-1-0--0---0-1--------5-3-1-0--
B--3---------------------3--------------------1
G------------------------------3--3-2----------
D----------------------------------------------
A----------------------------------------------
E----------------------------------------------

e----0-1-3--3-5-3-1-0-------5-3-1-0-------0--
B--3------------------3-1-----------3-1-3---3
G-------------------------3------------------
D--------------------------------------------
A--------------------------------------------
E--------------------------------------------

Repeat

e----------------------------------------------------------------
B--1---1------------1----------------1---1-----------------------
G---------3-2-0---2-----0--3-2-0---2--------3-2-0---2-0----------
D---------------3----------------3----------------3-------0-2-3-2
A----------------------------------------------------------------
E----------------------------------------------------------------

e------------------------------------------------------------------
B--1---1------------1----------------------------------------------
G---------3-2-0---2-----0--3-2-0-----2---2--0---------------1---1-2
D---------------3----------------3------------3-2-0-3-2-0-2---2----
A------------------------------------------------------------------
E------------------------------------------------------------------

e----0-1-3--3-5-3-1-0--0---0-1--------5-3-1-0--
B--3---------------------3--------------------1
G------------------------------3--3-2----------
D----------------------------------------------
A----------------------------------------------
E----------------------------------------------

e----0-1-3--3-5-3-1-0-------5-3-1-0-------0--
B--3------------------3-1-----------3-1-3---3
G-------------------------3------------------
D--------------------------------------------
A--------------------------------------------
E--------------------------------------------
Login or Register to remove this ad.

7 comments on Protecting My Devotion

This song is really fun to

This song is really fun to play, esspecially with these tabs. The intro is truely well done!

Great tab, Very fun song to

Great tab, Very fun song to play! I love this song in the game and it makes me want to pick it up again.

Sounds alot like Loss of Me

Sounds alot like Loss of Me ;)

yeah thats because loss of

yeah thats because loss of me is this song but slower and higher

But how do you play the

5

But how do you play the strumming at the beginning? It doesn't sound like the one in the song or maybe I am wrong?

class song! perfect!

class song! perfect!

Yeah!

Really Really Really Really Really Goooood!
This is my favorite song in FFIX!