Ads

The Place I'll Return to Someday (Final Fantasy IX) Guitar Tab

Submitted: Oct 01, 2007 by ronito (Last updated: Sep 16, 2009)

5
Average: 5 (13 votes)
Download | Listen
Game: Final Fantasy IX
Composer(s): Nobuo Uematsu
Style: Arrangement, Fingerstyle
Series: Final Fantasy

AutoScroll: Slow | Medium | Fast
Acoustic Guitar
     Q.     E  Q    Q       E  E  E  E  Q    E  E     Q    Q    Q.     E
E||---------0--1----3----|--5----------------7--8--|--7----5----3------5--|
B||--3-------------------|--------3--5--6----------|----------------------|
G||----------------------|-----5-------------------|----------------------|
D||------------0----2----|--3----------------------|----------------------|
A||----------------------|-------------------------|--7---------0---------|
E||----------------------|-------------------------|----------------------|

  Q    Q    Q    Q       Q.     E  Q    Q       H        Q    E  E
--1----0--------------|---------0--1----3----|--5-------------7--8--|
------------3----1----|--3-------------------|----------------------|
----------------------|----------------------|----------------------|
--0-------------------|--0--------------2----|--0-------------------|
----------------------|----------------------|-----------3----------|
----------------------|----------------------|----------------------|

  Q    Q    Q    Q       Q    Q    Q    Q       Q.     E  Q    Q
--7----5----5----4----|--5-------------------|---------0--1----3----|
----------------------|----------------------|--3-------------------|
----------------------|----------------------|----------------------|
------------0---------|-------0----2---------|------------0----2----|
--7-------------------|--3-------------------|----------------------|
----------------------|----------------------|----------------------|

  E  E  E  E  Q    E  E     Q    Q    Q.     E     Q    Q    Q    Q
--5----------------7--8--|--7----5----3------5--|--1----0--------------|
--------3--5--6----------|----------------------|------------3----1----|
-----5-------------------|----------------------|----------------------|
--3----------------------|----------------------|--0-------------------|
-------------------------|--7---------0---------|----------------------|
-------------------------|----------------------|----------------------|

  Q.     E  E  E  E  E     Q    Q    Q.     E     Q    Q    Q    Q
--1------1--3--1--0-----|-------5----0------3--|--1----0----0----0----|
---------------------3--|--1-------------------|----------------------|
------------------------|----------------------|----------------------|
--0---------2-----------|--3---------2---------|--0-------------------|
------------------------|----------------------|------------0---------|
------------------------|----------------------|----------------------|

  Q    E  E  Q    Q        H         Q     Q       Q.     E  Q    Q
-----------------------|--10--------------10----|--8------7--5----3----|
--3--------------------|------------10----------|----------------------|
-------2--0--2---------|------------------------|----------------------|
--0----------4---------|---0--------------------|----------------------|
-----------------------|-------------0----------|--7---------0---------|
-----------------------|------------------------|----------------------|

  Q    E  E  Q    Q       H        H            H         Q     Q
--5----1--3--5----7----|--8--------8--------|--10--------------10----|
-----------------------|--------------------|------------10----------|
-----------------------|--------------------|------------------------|
--3----------0---------|--------------------|---0--------------------|
-----------------------|--7-----------------|-------------0----------|
-----------------------|-----------8--------|------------------------|

  Q.     E  Q    Q       Q    Q    Q    E  E     H        Q    Q
--8------7--5----3----|--1----5----0----------|---------------------|
----------------------|-----------------3--2--|--3--------3---------|
----------------------|-----------------------|-----------2---------|
----------------------|--3---------2----------|--0--------0---------|
--7---------0---------|-----------------------|---------------------|
----------------------|-----------------------|---------------------|

   H         Q     Q       Q.     E  Q    Q       Q    E  E  Q    Q
--10--------------10----|--8------7--5----3----|--5----1--3--5----7----|
------------10----------|----------------------|-----------------------|
------------------------|----------------------|-----------------------|
---0--------------------|----------------------|--3----------0---------|
-------------0----------|--7---------0---------|-----------------------|
------------------------|----------------------|-----------------------|

  H        H            H         Q     Q       Q.     E  Q    Q
--8--------8--------|--10--------------10----|--8------7--5----3----|
--------------------|------------10----------|----------------------|
--------------------|------------------------|----------------------|
--------------------|---0--------------------|----------------------|
--7-----------------|-------------0----------|--7---------0---------|
-----------8--------|------------------------|----------------------|

  Q    Q    Q    E  E     E
--1----5----0----------|--2--||
-----------------3--2--|--3--||
-----------------------|--2--||
--3---------2----------|--0--||
-----------------------|-----||
-----------------------|-----||

Duration Legend
---------------
W - whole
H - half
Q - quarter
E - 8th
S - 16th
T - 32nd
X - 64th
. - note dotted
|-n-|  - n-tuplets
Login or Register to remove this ad.

5 comments on The Place I'll Return to Someday

Wow I Can't Believe No-one's

5

Wow
I Can't Believe No-one's Noticed This Before O:

nice tab

5

nice tab

sweet brings back memories of

sweet brings back memories of playin some ff9 back in the day...ahhhhh the good ol times. just hope my chubby digits lemme actually play it *they dont like to move where i want em to*

yes! Awesome!

5

yes! Awesome!

I'm sharpening my knife kupo...

Such a mystical song, so nostalgic. :) Thanks for the arrangement!